» » »

For Today - Isaiah (The Willing) Tabs

Artists:  A B C D E F G H I J K L M N O P Q R S T U V W X Y Z # 

Isaiah (The Willing) Tabs

(ver. 1) Click to play this song!
For Today
 Rating:
4/5 (4 votes)

 Isaiah (The Willing) lessons Tabs too difficult? Try these video lessons and learn fast
 
                Hey im Charly this is my first tab i've tried to figure out some parts of this song,It's 
a 100% accurate but it sounds decent to me i hope it's helpful. Any corrections are welcomed

b-bending .-Palm mute br-bending release ~-let it ring

Drop C tunning(CGCFAD)low to high

intro
D-10------10----------------------------------------------------------------|
A---11------11------11------------------------------------------------------|
F-----14------14--14--------------------------------------------------------|
C---------------12----------------------------------------------------------|
G---------------------------------------------------------------------------|
C---------------------------------------------------------------------------|

(0:28-0:43) (x2)
D---13----13----------------------------------------------------------------|
A-----11----11-------11-----------------------------------------------------|
F-------14----14---14-------------------------------------------------------|
C----------------12---------------------------------------------------------|
G---------------------------------------------------------------------------|
C---------------------------------------------------------------------------|

(0:44-0:58)
D-10------10----------------------------------------------------------------|
A---11------11------11------------------------------------------------------|
F-----14------14--14--------------------------------------------------------|
C---------------12----------------------------------------------------------|
G---------------------------------------------------------------------------|
C---------------------------------------------------------------------------|

1st Breakdown (00:28)the pattern is kinda hard im sure you'll it figure out
D---------------------------------------------------------------------------|
A---------------------------------------------------------------------------|
F---------------------------------------------------------------------------|
C---------------------------------------------------------------------------|
G-0-00-000-000-00-0-00-0000-------------------------------------------------|
C-0-00-000-000-00-0-00-0000-------------------------------------------------|
  . .. ... ... .. . .. ....
Guitar 1 joins at (00:58-1:12)
D---------------------------------------------------------------------------|
A---------------------------------------------------------------------------|
F---------------------------------------------------------------------------|
C---------------------------------------------------------------------------|
G-0-00-000-000-00-0-00-0000-------------------------------------------------|
C-0-00-000-000-00-0-00-0000-------------------------------------------------|
  . .. ... ... .. . .. ....

(x3)
D---------------------------------------------------------------------------|
A---------------------------------------------------------------------------|
F---------------------------------------------------------------------------|
C--3-5-3-2-3-5-3-2----------8---7---------8---7------------7---7---7--------|
G--3-5-3-2-3-5-3-2------------------------------------------8---8---8-------|
C--3-5-3-2-3-5-3-2-----00----0--------00-----0----0-0-----------------------|
                       ..    .        ..     .    . .
(x6)
D---------------------------------------------------------------------------|
A---------------------------------------------------------------------------|
F---------------------------------------------------------------------------|
C--3-5-3-2-3---------------12---11---------12--11---------11---11---11------|
G--3-5-3-2-3------------------------------------------------12---12---12----|
C--3-5-3-2-3-----------00----0--------00-----0----0-0-----------------------|
                       ..    .        ..     .    . .
D---------------------------------------------------------------------------|
A---------------------------------------------------------------------------|
F---------------------------------------------------------------------------|
C--3-5-3-2-0----------------------------------------------------------------|
G--3-5-3-2-0--0-0-0--0-0-0---0--0-------------------------------------------|
C--3-5-3-2-0--0-0-0--0-0-0---1--1-------------------------------------------|
              . . .  . . .   .  .

This is the end of the world!!...(Guitar 1) 2nd Breakdown
D----------------------------------b17--------------b17---------------------|
A--------------------------------------18-br17-----------18br17-------------|
F---------------------------------------------------------------------------|
C---------------------------------------------------------------------------|
G--0-11-1-11---0-11-1-11-1--------------------------------------------------|
C-b1-22-2-22--b1-22-2-22-2--------------------------------------------------|
   . .. . ..   . .. . .. .

Guitar 2 plays this
D---------------------------------------------------------------------------|
A---------------------------------------------------------------------------|
F---------------------------------------------------------------------------|
C---------------------------------------------------------------------------|
G--0-11-1-11---0--11-1-11-1-------------------------------------------------|
C-b1-22-2-22--b1--22-2-22-2-------------------------------------------------|
   . .. . ..   .  .. . .. .

figure out the rhythm
D------------------------|--------------------------------------------------|
A------------------------|--------------------------------------------------|
F-7-----9-------10------6|---6----------------------------------------------|
C-x-----x-------x-------x|---x(x3)------------------------------------------|
G-5-----7-------8-------4|---4----------------------------------------------|
C------------------------|--------------------------------------------------|

D---------------------------------------------------------------------------|
A---------------------------------------------------------------------------|
F-7-----9-------10------12-------14-----------------------------------------|
C-x-----x-------x-------x--------x------------------------------------------|
G-5-----7-------8-------10-------12-----------------------------------------|
C---------------------------------------------------------------------------|

D----------------------------------|----------------------------------------|
A----------------------------------|----------------------------------------|
F-10----9-------10------12-------14|-10-----9------10----9----7-------------|
C-x-----x-------x-------x------- x-|-x------x------x-----x----x-------------|
G-8-----7-------8-------10-------12|-8------7------8-----7----5-------------|
C----------------------------------|----------------------------------------|

bridge(x4)
D---------------------------------------------------------------------------|
A---------------------------------------------------------------------------|
F---------------------------------------------------------------------------|
C-0-8-7~--------------------------------------------------------------------|
G-0-8-7~--------------------------------------------------------------------|
C-0-8-7~--------------------------------------------------------------------|

(3:24-3:45)
D---------------------------------------------------------------------------|
A---------------------------------------------------------------------------|
F------------------------7--------------------------------------------------|
C---8-7-------------7-------------------------------------------------------|
G------5--------------4-----------------------------------------------------|
C-0-------0-000-0-8---------------------------------------------------------|
  .       . ... .

3rd breakdown
D----------------|----------------------------------------------------------|
A----------------|----------------------------------------------------------|
F----------------|----------------------------------------------------------|
C----------------|----------0~----------------------------------------------|
G-0-0-0000-0-(x2)|-0-0-0000-0~----------------------------------------------|
C-0-0-0000-0-----|-0-0-0000-0~----------------------------------------------|
  . . .... .       . . ....

please comment,rate enjoy it!
            
Submit corrections


        Isaiah (The Willing) lessons Hard to play? Try these video lessons and learn fast Isaiah (The Willing) lessons
        
↑ Back to top | Tablatures and chords for acoustic guitar and electric guitar, ukulele, drums are parodies/interpretations of the original songs. You may use it for private study, scholarship, research or language learning purposes only