» » »

For Today - Intro Tabs

Artists:  A B C D E F G H I J K L M N O P Q R S T U V W X Y Z # 

Intro Tabs

(ver. 2) Click to play this song!
For Today
 Rating:
4.3/5 (6 votes)

 Intro lessons Tabs too difficult? Try these video lessons and learn fast
 
                This is the intro track by FOR TODAY off their debut album EKKLESIA.
Played in DROP C, this melodic intro is a great start to a great cd.


I hope you enjoy, go pick up the cd if you don't have it!

Key:
h=hammer on
p=pull off
~=(slight)vibrato

Intro Solo riff (play X3)

|---------8h10----------------------------------|
|--------------10-------------------------------|
|----9h10---------10-9-10-9---------------------|
|---------------------------12-10-12-10---------|
|---------------------------------------8~~~----|
|-----------------------------------------------|

|---------8h10------------13p12--------17-------|
|--------------10---------------13--------18-17-|
|---9h10----------10-9-10----------14-----------|
|-----------------------------------------------|
|-----------------------------------------------|
|-----------------------------------------------|

|---------8h10----------------------------------|
|--------------10-------------------------------|
|----9h10---------10-9-10-9---------------------|
|---------------------------12-10-12-10---------|
|---------------------------------------8~~~----|
|-----------------------------------------------|

|-----------------------------------------------|
|-----------------------------------------------|
|----------12h14p12-----------------------------|   
|----14h15----------15-14-15-12~~~--------------|
|-----------------------------------------------|
|-----------------------------------------------|

The breakdown played behind the solo is very very simple to figure out. 
Hopefully this helps most of you with fingerings for this song!
Please comment with questions or just to give feedback. 
Thanks!
            
Submit corrections


        Intro lessons Hard to play? Try these video lessons and learn fast Intro lessons
        
↑ Back to top | Tablatures and chords for acoustic guitar and electric guitar, ukulele, drums are parodies/interpretations of the original songs. You may use it for private study, scholarship, research or language learning purposes only