» » »

For Today - Immanuel (The Challenger) Tabs

Artists:  A B C D E F G H I J K L M N O P Q R S T U V W X Y Z # 

Immanuel (The Challenger) Tabs

(ver. 1) Click to play this song!
For Today
 Rating:
4/5 (4 votes)

 Immanuel (The Challenger) lessons Tabs too difficult? Try these video lessons and learn fast
 
                               This is a tab of immanuel the challenger
                it is in drop c tuning and i hope that
                everyone finds this useful dont forget
                    too rate and comment,check out
                     some of my other tabs enjoy!


x - times played
T - tap
h - hammer on
p - pull off

Intro

D|-------------------------------------------------|-
A|-------------------------------------------------|--
F|---------7---------6---------7---------6---------|---
C|-------------------------------------------------|--- x2
G|---------5---------4---------5---------4---------|--
C|--3-333-----2-222-----8-888-----7-777------------|-

sweep pick

D|-----------6h10-15T-12p6-------------------8h12-17T-12p8---------|
A|---------8---------------8--------------10---------------10------|
F|-------7-------------------7----------9---------------------9----|
C|-----8-----------------------8-----10-------------------------10-|
G|--10----------------------------12-------------------------------|
C|-----------------------------------------------------------------|

last sweep

D|--------------11h15-20T-15p11-------------------|
A|-----------13-----------------13----------------|
F|--------12-----------------------12-------------|
C|-----13-----------------------------13----------|
G|--15-------------------------------------0--0---|
C|-----------------------------------------0--0---|

breakdown!

D|------------------------------------------------|
A|------------------------------------------------|
F|------------------------------------------------|
C|------------------------------------------------|
G|--0000-0-00--0000-0--000-000--00-00--00000--00--|
C|--0000-0-00--0000-0--000-000--00-00--00000--00--|

D|------------------------------------------------|
A|------------------------------------------------|
F|------------------------------------------------|
C|------------------------------------------------|
G|--000-0000-00--000-000-000-000--0---00-00-00----|
C|--000-0000-00--000-000-000-000--0---00-00-00----|

D|------------------------------------------------------|
A|------------------------------------------------------|
F|------------------------------------------------------|
C|------------------------------------------------------|
G|--0000-0--000-000--00-00-00000--00-000--0000-00-000---|
C|--0000-0--000-000--00-00-00000--00-000--0000-00-000---|

D|--------------------------------|
A|--------------------------------|
F|--------------------------------|
C|--------------------------------|
G|--000-000-000--0--00-00--0------|
C|--000-000-000--0--00-00--0------|

                 rythem guitar is simple its just all
              open strings played in breakdown rythem for
             the whole song. Thanks again i hope you enjoyed
                        plz rate and comment! 
                                :)


          
            
Submit corrections


        Immanuel (The Challenger) lessons Hard to play? Try these video lessons and learn fast Immanuel (The Challenger) lessons
        
↑ Back to top | Tablatures and chords for acoustic guitar and electric guitar, ukulele, drums are parodies/interpretations of the original songs. You may use it for private study, scholarship, research or language learning purposes only