» » »

For The Fallen Dreams - New Beginnings Tabs

Artists:  A B C D E F G H I J K L M N O P Q R S T U V W X Y Z # 

New Beginnings Tabs

(ver. 1) Click to play this song!
For The Fallen Dreams
 Rating:
4/5 (4 votes)
    New Beginnings lessons Tabs too difficult? Try these video lessons and learn fast
                (Intro)

Short and simple. Just figured the intro out just messing around. The chords are the 
part I'm not entirely sure about, I just played them after I figured out the first riff and 
seems to go with it.

Drop A# (A#-F-A#-D#-G-C)

E--------------8--------------------------------------|
B-----------8---8--8--8--8----------------------------|
G---------10-10--10-10-10-10--10-10-10-10-12-12-12-12-|
D-0---------------------------8--8--8--8--10-10-10-10-|
A-0-000000--------------------8--8--8--8--10-10-10-10-|
E-0-000000--------------------8--8--8--8--10-10-10-10-|
    ......

E-------------------------------------------|
B-------------------------------------------|
G-----------------999999-10-10-10-10-10-10--|
D-555-555-555-555-xxxxxx-x--x--x--x--x--x---|
A-555-555-555-555-777777-8--8--8--8--8--8---|
E-555-555-555-555---------------------------|
  ... ... ... ...


Feel free to fix and throw it into a full tab.
            
Submit corrections

↑ Back to top | Tablatures and chords for acoustic guitar and electric guitar, ukulele, drums are parodies/interpretations of the original songs. You may use it for private study, scholarship, research or language learning purposes only