Home » F » Foreigner »

Foreigner - Urgent Bass

Artists:  A B C D E F G H I J K L M N O P Q R S T U V W X Y Z # 

Urgent Bass

(Version #2)
Foreigner
 
  Intro
G|-------------------------|-------------------------|
D|-------------------------|-------------------------|
A|-------------------------|----------------------7\-|
E|-------------------------|-------------------------|

G|-------------------------|-------------------------|
D|-------------------------|----10----10----10----10-|
A|----7-----7-----7-----7--|-------------------------|
E|-0----0-0----0----0-0---/|-8----8-8----8----8-8---\|

G|-------------------------|-------------------------|
D|----7-----7-----7-----7--|-------------------------|
A|-------------------------|----7-----7-----7-----7--|
E|-5----5-5----5----5-5---/|-0----0-0----0----0-0---/|


  Verse 1
G|-------------------------|-------------------------|
D|-------------------------|----10----10----10----10-|
A|----7-----7-----7-----7--|-------------------------|
E|-0----0-0----0----0-0---/|-8----8-8----8----8-8---\|

G|-------------------------|-------------------------|
D|----7-----7-----7-----7--|-------------------------| x3
A|-------------------------|----7-----7-----7-----7--|
E|-5----5-5----5----5-5---/|-0----0-0----0----0-0----|


  Chorus 1
G|---------------------------------|---------------------------------|
D|---------------------------------|---------------------------------| x2
A|-7-7-7-7-5-5-5-5-------3-3-3-3-3-|-7-7-7-7-5-5-5-5-------3-3-3-3-3-|
E|-----------------5-5-5-----------|-----------------5-5-5-----------|

  Post Chorus 1
G|-------------------------|-------------------------|
D|-------------------------|-------------------------|
A|-7\-------------------7\-|----7-----7-----7-----7--|
E|-------------------------|-0----0-0----0----0-0----|

 Verse 2
G|-------------------------|-------------------------|
D|-------------------------|----10----10----10----10-|
A|----7-----7-----7-----7--|-------------------------|
E|-0----0-0----0----0-0---/|-8----8-8----8----8-8---\|

G|-------------------------|-------------------------|
D|----7-----7-----7-----7--|-------------------------| x2
A|-------------------------|----7-----7-----7-----7--|
E|-5----5-5----5----5-5---/|-0----0-0----0----0-0---/|


  Chorus 2
G|---------------------------------|---------------------------------|
D|---------------------------------|---------------------------------| x3
A|-7-7-7-7-5-5-5-5-------3-3-3-3-3-|-7-7-7-7-5-5-5-5-------3-3-3-3-3-|
E|-----------------5-5-5-----------|-----------------5-5-5-----------|

  Post Chorus 2
G|-------------------------|-------------------------|
D|-------------------------|-------------------------|
A|-7\----------------------|-------------------------|
E|-------------------------|-------------------------|

G|-------------------------|-------------------------|
D|-------------------------|-------------------------|
A|-------------------------|----------------------7\-|
E|-------------------------|-------------------------|

  Solo
G|-------------------------|-------------------------|
D|-------------------------|----10----10----10----10-|
A|----7-----7-----7-----7--|-------------------------|
E|-0----0-0----0----0-0---/|-8----8-8----8----8-8---\|

G|-------------------------|-------------------------|
D|----7-----7-----7-----7--|-------------------------| x2
A|-------------------------|----7-----7-----7-----7--|
E|-5----5-5----5----5-5---/|-0----0-0----0----0-0---/|


  Chorus 2
G|---------------------------------|---------------------------------|
D|---------------------------------|---------------------------------| repeat and fade out
A|-7-7-7-7-5-5-5-5-------3-3-3-3-3-|-7-7-7-7-5-5-5-5-------3-3-3-3-3-|
E|-----------------5-5-5-----------|-----------------5-5-5-----------|
            
Submit corrections

↑ Back to top | Tablatures and chords for acoustic guitar and electric guitar, ukulele, drums are parodies/interpretations of the original songs. You may use it for private study, scholarship, research or language learning purposes only