Home » F » Foreigner »

Foreigner - Cold As Ice Bass

Artists:  A B C D E F G H I J K L M N O P Q R S T U V W X Y Z # 

Cold As Ice Bass

(ver. 1) Click to play this song!
Foreigner
-------------------------------------------------------------------------------
-------------------------------------------------------------------------------


Tuning: Standard

Intro (start on first drum beat)
G|---------------------------------------------------------------------------|
D|---------------------------------------------------------------------------|
A|-----4--6-----6--4------------4--6-----6--4------------4--6-----6--4-------|
E|--7-----------------7------7-----------------7------7-----------------7----|

Pre-Chorus
G|---------------------------------------------------------------------------|
D|----------------------------------1----------------------------------------|
A|-------------------------------2-----2--2--1--2--4-------------------------|
E|---7--6--4----2~-----1~-----4----------------------------------------------|

G|---------------------------------------------------------------------------|
D|-----------------------1---------------------------------------------------|
A|--------------------2-----2--1-1-1-1---------------------------------------|
E|---2~-----1~-----4---------------------------------------------------------|

Chorus x 5
G|---------------------------------------------------------------------------|
D|---------------------------------------------------------------------------|
A|---6-6-------6-6-------2-2------2-2----------------------------------------|
E|--------6-6-------6-6-------2-2-------2-2----------------------------------|

Bridge
G|---------------------------------------------------------------------------|
D|---------------------------------------------------------------------------|
A|---2~-----1~-----2-----------------------4-6-------------------------------|
E|----------------------6-4----2------6--------------------------------------|

G|---------------------------------------------------------------------------|
D|---------------------------------------------------------------------------|
A|---6----8----11----13-14---13-11---8---------(x2)--------------------------|
E|-------------------------------------------------------7--6--4-------------|

Repeat Chorus until the song ends


| /  slide up
| \  slide down
| h  hammer-on
| p  pull-off
| ~  vibrato
| +  harmonic
| x  Mute note
====================================================================
            
Submit corrections

↑ Back to top | Tablatures and chords for acoustic guitar and electric guitar, ukulele, drums are parodies/interpretations of the original songs. You may use it for private study, scholarship, research or language learning purposes only