Home » F » Foreigner »

Foreigner - Hot Blooded Tabs

Artists:  A B C D E F G H I J K L M N O P Q R S T U V W X Y Z # 

Hot Blooded Tabs

(ver. 3) Click to play this song!
Foreigner

I have always wanted to learn this song, and unfortunatly, could never find a tab that
sounded right. 
So I gave a try at transcribing it myself, and this sounds much better.
I play the first part not as barre chords, but with my first finger at the third fret,
and my third and fourth fingers squeezed in at the fifth fret.  
Then I can put my second finger at the fourth fret.
Then to play the next part, all you have to do is lift your pinkie.  The same applies
for the 8th and 10th fret chords,
just put your pinkie down instead of lifting it.

--|-----------------|-------------------|-0-0-0-0-0-|-0-0-0-0-0-0-------------
--|-----------------|-------------------|-3-1-1-1-1-|-3-3-1-1-1-1-------------
--|5-5--4-10-10-9---|-12-12-11--11-11-12|-0-x-x-0-0-|-0-0-x-x-0-0-------------
--|5-5--5-10-10-10--|-12-12-12--12-12-12|-0-3-3-x-x-|-0-0-3-3-x-x-------------
--|3-3--3-8--8--8---|-10-10-10--10-10-10|-3-0-0-3-3-|-3-0-0-0-3-3-------------
-3|-----------------|0---------0--------|-0-0-0-0-0-|-0-0-0-0-0-0-------------
                                          ^Mute this after you play it        

------------------|-----------------------------------------------------------
------------------|-----------------------------------------------------------
-5/7-7/5\7-7-7-5-5|-10-10-7-0-3-3-0-------------------------------------------
-5/7-5/5\5-9-9-3-3|-10-10-7-0-3-3-0-------------------------------------------
-3/5-5/3\5-9-9-3-3|-----------------------------------------------------------
------------------|-----------------------------------------------------------
            
Submit corrections

↑ Back to top | Tablatures and chords for acoustic guitar and electric guitar, ukulele, drums are parodies/interpretations of the original songs. You may use it for private study, scholarship, research or language learning purposes only