» » »

Foo Fighters - My Hero Acoustic Tabs

Artists:  A B C D E F G H I J K L M N O P Q R S T U V W X Y Z # 

My Hero Acoustic Tabs

(ver. 4) Click to play this song!
Foo Fighters
 Rating:
4.3/5 (21 vote)

 My Hero Acoustic lessons Tabs too difficult? Try these video lessons and learn fast
 
                [Intro]
e|-0---0-X-4-4-4-4-4-4-4-4-X-X-|-0-0-0-X-4-4-4-4-4-4-4-4-X-X----------------|
B|-0-0-0-X-4-4-7-4-4-4-7-5-X-X-|-0-0-0-X-4-4-7-4-4-4-7-5-X-X----------------|
G|-1-1---X-4-4-4-4-4-4-4-4-X-X-|-1-1---X-4-4-4-4-4-4-4-4-X-X----------------|
D|-2-2---X-6-6-6-6-6-6-6-6-X-X-|-2-2---X-6-6-6-6-6-6-6-6-X-X----------------|
A|-2-----X-4-4-4-4-4-4-4-4-X-X-|-2-----X-4-4-4-4-4-4-4-4-X-X----------------|
E|-0-----X-----------------X-X-|-0-----X-----------------X-X----------------|
   D D U D D U D U D U D U D U   D D U U D U D U D U D U D U

e|-0---0-X-4-4-4-4-4-4-4-4-X-X-|-0-0-0-X-4-4-4-4-4-4-4-4----|-----------0---|
B|-0-0-0-X-4-4-7-4-4-4-7-5-X-X-|-0-0-0-X-4-4-7-4-4-4-7-5----|-----------2---|
G|-1-1---X-4-4-4-4-4-4-4-4-X-X-|-1-1---X-4-4-4-4-4-4-4-4----|-----------2---|
D|-2-2---X-6-6-6-6-6-6-6-6-X-X-|-2-2---X-6-6-6-6-6-6-6-6----|-----X-X---2---|
A|-2-----X-4-4-4-4-4-4-4-4-X-X-|-2-----X-4-4-4-4-4-4-4-4----|-X-X-4-2-X-0---|
E|-0-----X-----------------X-X-|-0-----X-----------------4/-|-2-2-----4-----|
   D D U D D U D U D U D U D U   D D U U D U D U D U D U

  [Verse 1]
e|-0---0-X-4-4-4-4-4-4-4-4-X-X-|-0-0-0-X-4-4-4-4-4-4-4-4-X-X----------------|
B|-0-0-0-X-4-4-7-4-4-4-7-5-X-X-|-0-0-0-X-4-4-7-4-4-4-7-5-X-X----------------|
G|-1-1---X-4-4-4-4-4-4-4-4-X-X-|-1-1---X-4-4-4-4-4-4-4-4-X-X----------------|
D|-2-2---X-6-6-6-6-6-6-6-6-X-X-|-2-2---X-6-6-6-6-6-6-6-6-X-X----------------|
A|-2-----X-4-4-4-4-4-4-4-4-X-X-|-2-----X-4-4-4-4-4-4-4-4-X-X----------------|
E|-0-----X-----------------X-X-|-0-----X-----------------X-X----------------|
   D D U D D U D U D U D U D U   D D U U D U D U D U D U D U

e|-0---0-X-4-4-4-4-4-4-4-4-X-X-|-0-0-0-X-4-4-4-4-4-4-4-4-X-X----------------|
B|-0-0-0-X-4-4-7-4-4-4-7-5-X-X-|-0-0-0-X-4-4-7-4-4-4-7-5-X-X----------------|
G|-1-1---X-4-4-4-4-4-4-4-4-X-X-|-1-1---X-4-4-4-4-4-4-4-4-X-X----------------|
D|-2-2---X-6-6-6-6-6-6-6-6-X-X-|-2-2---X-6-6-6-6-6-6-6-6-X-X----------------|
A|-2-----X-4-4-4-4-4-4-4-4-X-X-|-2-----X-4-4-4-4-4-4-4-4-X-X----------------|
E|-0-----X-----------------X-X-|-0-----X-----------------X-X----------------|
   D D U D D U D U D U D U D U   D D U U D U D U D U D U D U

e|-0---0-X-4-4-4-4-4-4-4-4-X-X-|-0-0-0-X-4-4-4-4-4-4-4-4-X-X----------------|
B|-0-0-0-X-4-4-7-4-4-4-7-5-X-X-|-0-0-0-X-4-4-7-4-4-4-7-5-X-X----------------|
G|-1-1---X-4-4-4-4-4-4-4-4-X-X-|-1-1---X-4-4-4-4-4-4-4-4-X-X----------------|
D|-2-2---X-6-6-6-6-6-6-6-6-X-X-|-2-2---X-6-6-6-6-6-6-6-6-X-X----------------|
A|-2-----X-4-4-4-4-4-4-4-4-X-X-|-2-----X-4-4-4-4-4-4-4-4-X-X----------------|
E|-0-----X-----------------X-X-|-0-----X-----------------X-X----------------|
   D D U D D U D U D U D U D U   D D U U D U D U D U D U D U

e|-0---0-X-4-4-4-4-4-4-4-4-X-X-|-0-0-0-X-4-4-4-4-4-4-4-4-X-X----------------|
B|-0-0-0-X-4-4-7-4-4-4-7-5-X-X-|-0-0-0-X-4-4-4-4-4-4-4-4-X-X----------------|
G|-1-1---X-4-4-4-4-4-4-4-4-X-X-|-1-1---X-4-4-4-4-4-4-4-4-X-X----------------|
D|-2-2---X-6-6-6-6-6-6-6-6-X-X-|-2-2---X-6-6-6-6-6-6-6-6-X-X----------------|
A|-2-----X-4-4-4-4-4-4-4-4-X-X-|-2-----X-4-4-4-4-4-4-4-4-X-X----------------|
E|-0-----X-----------------X-X-|-0-----X-----------------X-X----------------|
   D D U D D U D U D U D U D U   D D U U D U D U D U D U D U

  [Chorus 1]
e|---------------------------------|----------------------------------------|
B|-------------------------7-7-7-7-|----------------------------------------|
G|---------8-8-8-8-9-9-9-9-X-X-X-X-|---------8-8-8-8-9-9-9-9----------------|
D|-7-7-7-7-7-7-7-7-7-7-7-7-7-7-7-7-|-7-7-7-7-7-7-7-7-7-7-7-7-9/11-11-11-9-9-|
A|-0-0-0-0-0-0-0-0-0-0-0-0-0-0-0-0-|-0-0-0-0-0-0-0-0-0-0-0-0-0----0--0--0-7-|
E|---------------------------------|--------------------------------------0-|
   D U D U D U D U D U D U D U D U   D U D U D U D U D U D U D    U  D  U D

e|---------------------------------------------|-----------------------------|
B|---------------------------------------------|-----------------------------|
G|-9-9-9-9-8-8-8-8-9-9-9-9-11-11-11-11-9-9-9-9-|-8-8-8-8-9-9-9-9/-4-4-4-4----|
D|-9-9-9-9-X-X-X-X-X-X-X-X-X--X--X--X--9-9-9-9-|-X-X-X-X-X-X-X-X--X-X-X-X-/7-|
A|-7-7-7-7-6-6-6-6-7-7-7-7-9--9--9--9--7-7-7-7-|-6-6-6-6-7-7-7-7/-2-2-2-2--0-|
E|-0-0-0-0-0-0-0-0-0-0-0-0-0--0--0--0--0-0-0-0-|-0-0-0-0-0-0-0-0-------------|
   D U D U D U D U D U D U D  U  D  U  D U D U   D U D U D U D U  D U D U  D

e|---------------------------------|----------------------------------------|
B|-------------------------7-7-7-7-|----------------------------------------|
G|---------8-8-8-8-9-9-9-9-X-X-X-X-|---------8-8-8-8-9-9-9-9----------------|
D|-7-7-7-7-7-7-7-7-7-7-7-7-7-7-7-7-|-7-7-7-7-7-7-7-7-7-7-7-7-9/11-11-11-9-9-|
A|-0-0-0-0-0-0-0-0-0-0-0-0-0-0-0-0-|-0-0-0-0-0-0-0-0-0-0-0-0-0----0--0--0-7-|
E|---------------------------------|--------------------------------------0-|

e|---------------------------------------------|-----------------------------|
B|---------------------------------------------|-----------------------------|
G|-9-9-9-9-8-8-8-8-9-9-9-9-11-11-11-11-9-9-9-9-|-8-8-8-8-9-9-9-9/-4-4-X-X----|
D|-9-9-9-9-X-X-X-X-X-X-X-X-X--X--X--X--9-9-9-9-|-X-X-X-X-X-X-X-X--X-X-X-X----|
A|-7-7-7-7-6-6-6-6-7-7-7-7-9--9--9--9--7-7-7-7-|-6-6-6-6-7-7-7-7/-2-2-X-X----|
E|-0-0-0-0-0-0-0-0-0-0-0-0-0--0--0--0--0-0-0-0-|-0-0-0-0-0-0-0-0-------------|

  [Interlude]
e|-----------0---------------------|----0----0--0--------0-0-0-0-0----------|
B|-----------2---------------------|-4--4/5--4--0--------0-0-0-0-0------X-X-|
G|-----------2---------------2-2-X-|------------4--------4-4-4-4-4------X-X-|
D|-----------2---------------2-2-X-|------------------------------------X-X-|
A|-----4-2---0---------------0---X-|------------------------------------X-X-|
E|-2-2-----4-----------------------|----------------------------------------|

  [Verse 2]
e|-0---0-X-4-4-4-4-4-4-4-4-X-X-|-0-0-0-X-4-4-4-4-4-4-4-4-X-X----------------|
B|-0-0-0-X-4-4-7-4-4-4-7-5-X-X-|-0-0-0-X-4-4-7-4-4-4-7-5-X-X----------------|
G|-1-1---X-4-4-4-4-4-4-4-4-X-X-|-1-1---X-4-4-4-4-4-4-4-4-X-X----------------|
D|-2-2---X-6-6-6-6-6-6-6-6-X-X-|-2-2---X-6-6-6-6-6-6-6-6-X-X----------------|
A|-2-----X-4-4-4-4-4-4-4-4-X-X-|-2-----X-4-4-4-4-4-4-4-4-X-X----------------|
E|-0-----X-----------------X-X-|-0-----X-----------------X-X----------------|

e|-0---0-X-4-4-4-4-4-4-4-4-X-X-|-0-0-0-X-4-4-4-4-4-4-4-4-X-X----------------|
B|-0-0-0-X-4-4-7-4-4-4-7-5-X-X-|-0-0-0-X-4-4-7-4-4-4-7-5-X-X----------------|
G|-1-1---X-4-4-4-4-4-4-4-4-X-X-|-1-1---X-4-4-4-4-4-4-4-4-X-X----------------|
D|-2-2---X-6-6-6-6-6-6-6-6-X-X-|-2-2---X-6-6-6-6-6-6-6-6-X-X----------------|
A|-2-----X-4-4-4-4-4-4-4-4-X-X-|-2-----X-4-4-4-4-4-4-4-4-X-X----------------|
E|-0-----X-----------------X-X-|-0-----X-----------------X-X----------------|

e|-0---0-X-4-4-4-4-4-4-4-4-X-X-|-0-0-0-X-4-4-4-4-4-4-4-4-X-X----------------|
B|-0-0-0-X-4-4-7-4-4-4-7-5-X-X-|-0-0-0-X-4-4-7-4-4-4-7-5-X-X----------------|
G|-1-1---X-4-4-4-4-4-4-4-4-X-X-|-1-1---X-4-4-4-4-4-4-4-4-X-X----------------|
D|-2-2---X-6-6-6-6-6-6-6-6-X-X-|-2-2---X-6-6-6-6-6-6-6-6-X-X----------------|
A|-2-----X-4-4-4-4-4-4-4-4-X-X-|-2-----X-4-4-4-4-4-4-4-4-X-X----------------|
E|-0-----X-----------------X-X-|-0-----X-----------------X-X----------------|

e|-0---0-X-4-4-4-4-4-4-4-4-X-X-|-0-0-0-X-4-4-4-4-4-4-4-4-X-X----------------|
B|-0-0-0-X-4-4-7-4-4-4-7-5-X-X-|-0-0-0-X-4-4-4-4-4-4-4-4-X-X----------------|
G|-1-1---X-4-4-4-4-4-4-4-4-X-X-|-1-1---X-4-4-4-4-4-4-4-4-X-X----------------|
D|-2-2---X-6-6-6-6-6-6-6-6-X-X-|-2-2---X-6-6-6-6-6-6-6-6-X-X----------------|
A|-2-----X-4-4-4-4-4-4-4-4-X-X-|-2-----X-4-4-4-4-4-4-4-4-X-X----------------|
E|-0-----X-----------------X-X-|-0-----X-----------------X-X----------------|

  [Chorus 2]
e|---------------------------------|----------------------------------------|
B|-------------------------7-7-7-7-|----------------------------------------|
G|---------8-8-8-8-9-9-9-9-X-X-X-X-|---------8-8-8-8-9-9-9-9----------------|
D|-7-7-7-7-7-7-7-7-7-7-7-7-7-7-7-7-|-7-7-7-7-7-7-7-7-7-7-7-7-9/11-11-11-9-9-|
A|-0-0-0-0-0-0-0-0-0-0-0-0-0-0-0-0-|-0-0-0-0-0-0-0-0-0-0-0-0-0----0--0--0-7-|
E|---------------------------------|--------------------------------------0-|

e|---------------------------------------------|-----------------------------|
B|---------------------------------------------|-----------------------------|
G|-9-9-9-9-8-8-8-8-9-9-9-9-11-11-11-11-9-9-9-9-|-8-8-8-8-9-9-9-9/-4-4-4-4----|
D|-9-9-9-9-X-X-X-X-X-X-X-X-X--X--X--X--9-9-9-9-|-X-X-X-X-X-X-X-X--X-X-X-X-/7-|
A|-7-7-7-7-6-6-6-6-7-7-7-7-9--9--9--9--7-7-7-7-|-6-6-6-6-7-7-7-7/-2-2-2-2--0-|
E|-0-0-0-0-0-0-0-0-0-0-0-0-0--0--0--0--0-0-0-0-|-0-0-0-0-0-0-0-0-------------|

e|---------------------------------|----------------------------------------|
B|-------------------------7-7-7-7-|----------------------------------------|
G|---------8-8-8-8-9-9-9-9-X-X-X-X-|---------8-8-8-8-9-9-9-9----------------|
D|-7-7-7-7-7-7-7-7-7-7-7-7-7-7-7-7-|-7-7-7-7-7-7-7-7-7-7-7-7-9/11-11-11-9-9-|
A|-0-0-0-0-0-0-0-0-0-0-0-0-0-0-0-0-|-0-0-0-0-0-0-0-0-0-0-0-0-0----0--0--0-7-|
E|---------------------------------|--------------------------------------0-|

e|---------------------------------------------|-----------------------------|
B|---------------------------------------------|-----------------------------|
G|-9-9-9-9-8-8-8-8-9-9-9-9-11-11-11-11-9-9-9-9-|-8-8-8-8-9-9-9-9/-4-4-X-X----|
D|-9-9-9-9-X-X-X-X-X-X-X-X-X--X--X--X--9-9-9-9-|-X-X-X-X-X-X-X-X--X-X-X-X----|
A|-7-7-7-7-6-6-6-6-7-7-7-7-9--9--9--9--7-7-7-7-|-6-6-6-6-7-7-7-7/-2-2-X-X----|
E|-0-0-0-0-0-0-0-0-0-0-0-0-0--0--0--0--0-0-0-0-|-0-0-0-0-0-0-0-0-------------|

  [Interlude]
e|-----------0---------------------|
B|-----------2---------------------|
G|-----------2-----2-2-2-2-2-2-2-X-|
D|-----------2-----2-2-2-2-2-2-2-X-|
A|-----4-2---0-----0-0-0-0-0-0---X-|
E|-2-2-----4-----------------------|

e|-0---0-X-4-4-4-4-4-4-4-4-X-X-|-0-0-0-X-4-4-4-4-4-4-4-4-X-X----------------|
B|-0-0-0-X-4-4-4-4-4-4-4-4-X-X-|-0-0-0-X-4-4-4-4-4-4-4-4-X-X----------------|
G|-1-1---X-4-4-4-4-4-4-4-4-X-X-|-1-1---X-4-4-4-4-4-4-4-4-X-X----------------|
D|-2-2---X-6-6-6-6-6-6-6-6-X-X-|-2-2---X-6-6-6-6-6-6-6-6-X-X----------------|
A|-2-----X-4-4-4-4-4-4-4-4-X-X-|-2-----X-4-4-4-4-4-4-4-4-X-X----------------|
E|-0-----X-----------------X-X-|-0-----X-----------------X-X----------------|

e|-0---0-X-4-4-4-4-4-4-4-4-X-X-|-0-0-0-X-4-4-4-4-4-4-4-4--------------------|
B|-0-0-0-X-4-4-4-4-4-4-4-4-X-X-|-0-0-0-X-4-4-4-4-4-4-4-4--------------------|
G|-1-1---X-4-4-4-4-4-4-4-4-X-X-|-1-1---X-4-4-4-4-4-4-4-4--------------------|
D|-2-2---X-6-6-6-6-6-6-6-6-X-X-|-2-2---X-6-6-6-6-6-6-6-6--------------------|
A|-2-----X-4-4-4-4-4-4-4-4-X-X-|-2-----X-4-4-4-4-4-4-4-4--------------------|
E|-0-----X-----------------X-X-|-0-----X-----------------0-0----------------|

  [Verse 3]
e|-0---0-X-4-4-4-4-4-4-4-4-X-X-|-0-0-0-X-4-4-4-4-4-4-4-4-X-X----------------|
B|-0-0-0-X-4-4-4-4-4-4-4-4-X-X-|-0-0-0-X-4-4-4-4-4-4-4-4-X-X----------------|
G|-1-1---X-4-4-4-4-4-4-4-4-X-X-|-1-1---X-4-4-4-4-4-4-4-4-X-X----------------|
D|-2-2---X-6-6-6-6-6-6-6-6-X-X-|-2-2---X-6-6-6-6-6-6-6-6-X-X----------------|
A|-2-----X-4-4-4-4-4-4-4-4-X-X-|-2-----X-4-4-4-4-4-4-4-4-X-X----------------|
E|-0-----X-----------------X-X-|-0-----X-----------------X-X----------------|

e|-0---0-X-4-4-4-4-4-4-4-4-X-X-|-0-0-0-X-4-4-4-4-4-4-4-4--------------------|
B|-0-0-0-X-4-4-4-4-4-4-4-4-X-X-|-0-0-0-X-4-4-4-4-4-4-4-4--------------------|
G|-1-1---X-4-4-4-4-4-4-4-4-X-X-|-1-1---X-4-4-4-4-4-4-4-4--------------------|
D|-2-2---X-6-6-6-6-6-6-6-6-X-X-|-2-2---X-6-6-6-6-6-6-6-6--------------------|
A|-2-----X-4-4-4-4-4-4-4-4-X-X-|-2-----X-4-4-4-4-4-4-4-4--------------------|
E|-0-----X-----------------X-X-|-0-----X------------------------------------|

  [Final Chorus]
e|---------------------------------------------|----------------------------|
B|---------------------------------------------|----------------------------|
G|---------8-8-8-8-9-9-9-9-11-11-11-11---------|-8-8-8-8-9-9-9-9-4-4-4-X--X-|
D|-7-7-7-7-X-X-X-X-X-X-X-X-X--X--X--X--7-7-7-7-|-X-X-X-X-X-X-X-X-X-X-X-X-/9-|
A|-X-X-X-X-6-6-6-6-7-7-7-7-9--9--9--9--X-X-X-X-|-6-6-6-6-7-7-7-7-2-2-2-X-/7-|
E|-5-5-5-5-0-0-0-0-0-0-0-0-0--0--0--0--5-5-5-5-|-0-0-0-0-0-0-0-0----------0-|

e|---------------------------------------------|----------------------------|
B|---------------------------------------------|----------------------------|
G|-X-X-X-X-8-8-8-8-9-9-9-9-11-11-11-11-X-X-X-X-|-8-8-8-8-9-9-9-9------------|
D|-9-9-9-9-X-X-X-X-X-X-X-X-X--X--X--X--9-9-9-9-|-X-X-X-X-X-X-X-X-9-9-9-/-7--|
A|-7-7-7-7-6-6-6-6-7-7-7-7-9--9--9--9--7-7-7-7-|-6-6-6-6-7-7-7-7-X-X-X---X--|
E|-0-0-0-0-0-0-0-0-0-0-0-0-0--0--0--0--0-0-0-0-|-0-0-0-0-0-0-0-0-7-7-7-/-5--|

e|---------------------------------------------|----------------------------|
B|---------------------------------------------|----------------------------|
G|---------8-8-8-8-9-9-9-9-11-11-11-11---------|-8-8-8-8-9-9-9-9-4-4-4-X--X-|
D|-7-7-7-7-X-X-X-X-X-X-X-X-X--X--X--X--7-7-7-7-|-X-X-X-X-X-X-X-X-X-X-X-X-/9-|
A|-X-X-X-X-6-6-6-6-7-7-7-7-9--9--9--9--X-X-X-X-|-6-6-6-6-7-7-7-7-2-2-2-X-/7-|
E|-5-5-5-5-0-0-0-0-0-0-0-0-0--0--0--0--5-5-5-5-|-0-0-0-0-0-0-0-0----------0-|

e|---------------------------------------------|----------------------------|
B|---------------------------------------------|----------------------------|
G|-X-X-X-X-8-8-8-8-9-9-9-9-11-11-11-11-X-X-X-X-|-8-8-8-8-9-9-9-9------------|
D|-9-9-9-9-X-X-X-X-X-X-X-X-X--X--X--X--9-9-9-9-|-X-X-X-X-X-X-X-X-9-9-9-/-7--|
A|-7-7-7-7-6-6-6-6-7-7-7-7-9--9--9--9--7-7-7-7-|-6-6-6-6-7-7-7-7-X-X-X---X--|
E|-0-0-0-0-0-0-0-0-0-0-0-0-0--0--0--0--0-0-0-0-|-0-0-0-0-0-0-0-0-7-7-7-/-5--|

e|---------------------------------------------|----------------------------|
B|---------------------------------------------|----------------------------|
G|---------8-8-8-8-9-9-9-9-11-11-11-11---------|-8-8-8-8-9-9-9-9-4-4-4-X--X-|
D|-7-7-7-7-X-X-X-X-X-X-X-X-X--X--X--X--7-7-7-7-|-X-X-X-X-X-X-X-X-X-X-X-X-/9-|
A|-X-X-X-X-6-6-6-6-7-7-7-7-9--9--9--9--X-X-X-X-|-6-6-6-6-7-7-7-7-2-2-2-X-/7-|
E|-5-5-5-5-0-0-0-0-0-0-0-0-0--0--0--0--5-5-5-5-|-0-0-0-0-0-0-0-0----------0-|

e|---------------------------------------------|----------------------------|
B|---------------------------------------------|----------------------------|
G|-X-X-X-X-8-8-8-8-9-9-9-9-11-11-11-11-X-X-X-X-|-8-8-8-8-9-9-9-9------------|
D|-9-9-9-9-X-X-X-X-X-X-X-X-X--X--X--X--9-9-9-9-|-X-X-X-X-X-X-X-X-9-9-9-/-7--|
A|-7-7-7-7-6-6-6-6-7-7-7-7-9--9--9--9--7-7-7-7-|-6-6-6-6-7-7-7-7-X-X-X---X--|
E|-0-0-0-0-0-0-0-0-0-0-0-0-0--0--0--0--0-0-0-0-|-0-0-0-0-0-0-0-0-7-7-7-/-5--|

e|---------------------------------------------|----------------------------|
B|---------------------------------------------|----------------------------|
G|---------8-8-8-8-9-9-9-9-11-11-11-11---------|-8-8-8-8-9-9-9-9-4-4-4-X--X-|
D|-7-7-7-7-X-X-X-X-X-X-X-X-X--X--X--X--7-7-7-7-|-X-X-X-X-X-X-X-X-X-X-X-X-/9-|
A|-X-X-X-X-6-6-6-6-7-7-7-7-9--9--9--9--X-X-X-X-|-6-6-6-6-7-7-7-7-2-2-2-X-/7-|
E|-5-5-5-5-0-0-0-0-0-0-0-0-0--0--0--0--5-5-5-5-|-0-0-0-0-0-0-0-0----------0-|

e|---------------------------------------------|------------------------X-X-|
B|---------------------------------------------|------------------------X-X-|
G|-X-X-X-X-8-8-8-8-9-9-9-9-11-11-11-11-13-13-13|-13-13-13-13-13-13-13-13X-X-|
D|-9-9-9-9-X-X-X-X-X-X-X-X-X--X--X--X--X--X--X-|-X--X--X--X--X--X--X--X-X-X-|
A|-7-7-7-7-6-6-6-6-7-7-7-7-9--9--9--9--11-11-11|-11-11-11-11-11-11-11-11X-X-|
E|-0-0-0-0-0-0-0-0-0-0-0-0-0--0--0--0--0--0--0-|-0--0--0--0--0--0--0--0-X-X-|

e|-----------0----|
B|-----------2----|
G|-----------2----|
D|-----------2----|
A|-----4-2---0----|
E|-2-2-----4------|            
Submit corrections


        My Hero Acoustic lessons Hard to play? Try these video lessons and learn fast My Hero Acoustic lessons
        
↑ Back to top | Tablatures and chords for acoustic guitar and electric guitar, ukulele, drums are parodies/interpretations of the original songs. You may use it for private study, scholarship, research or language learning purposes only