Home » F » Focus »

Focus - Sylvia Bass

Artists:  A B C D E F G H I J K L M N O P Q R S T U V W X Y Z # 

Sylvia Bass

(ver. 1) Click to play this song!
Focus
Intro:
G|---------------|-------------------------------------------|
D|-KEYBOARD BASS-|-------------------------------------------|
A|--FOR 8 BARS---|-------------------------------------5-6-7-|
E|---------------|-1----1----1----1----1----1----1--6-8------|

G|----------------------------|
D|----------------------------|
A|-8----8----8----8----8----8-|
E|----------------------------|

Verse 1:
G|--------------------------------------------------------------|
D|------------------------8---5---7---10------------------------|
A|-8--8---7-7---5-----------------------10----8---7-7---6---5-5-|
E|-----------------8---6------------------8---------------------|

G|----------5--6--8--10-|
D|-5--7--8--------------|
A|----------------------|
E|----------------------|

Verse 2:
G|--------------------------------------------------------|
D|------------------------------------------------------8-|
A|-8----8----8----8----8----8----8--8---7-7---5-----------|
E|-----------------------------------------------8---6----|

G|-------------------------------------------5--6--8--10-|
D|-5---7---10------------------------5--7--8-------------|
A|-----------10----8---7-7---6---5-5---------------------|
E|-------------8-----------------------------------------|

Bridge 1:
G|------------------------------------------------------------------|
D|---------5--6--8--10----------------------------------------------|
A|-5--7--8-------------8--7-7---6-6---5-5---8--9--10--9--10---8--10-|
E|-----------------------------------------8------------------------|

G|----------------------------------5-----|
D|-----------------------5--6--7--5-------|
A|-10---8-8---7-7---6-6-----------------3-|
E|----------------------------------------|

Verse 3:
G|-----------------------------------------------------------|
D|--------------------8-8---5---7---10-----------------------|
A|-8---7-7---5------------------------10---8---7-7---6---5-5-|
E|--------------8---6-------------------8--------------------|

G|----------5--6--8--10-|
D|-5--7--8--------------|
A|----------------------|
E|----------------------|

Bridge 2:
G|---------------------------------------------------------5--7-|
D|---------5--6--8--10--------------------------4--5--7--8------|
A|-5--7--8---------------------5--6--8--10----7-----------------|
E|---------------------5--7--8----------------------------------|

G|----------------------------------------------------------|
D|-5-----------------3-5--6--7--6--7--5--7---7--5-5--4------|
A|----8-8---7---5-5-------------------------------------7-7-|
E|----------------------------------------------------------|

G|----4--5----7-----|
D|-5-7-----7----7---|
A|----------------5-|
E|------------------|

Verse 4:
G|------------------------------------------------------------|
D|---------------------8-8---5---7---10-----------------------|
A|-8---7-7--5-5------------------------10---8---7-7---6---5-5-|
E|--------------8-8--6-------------------8--------------------|

                                                    (Break)
G|----------5--6--8--10---------------------------------|
D|-5--7--8----------------------------------------------|
A|---------------------------0----1----3----4----6----8-|
E|-----------------------3------------------------------|

Outro:
G|---------------|------------------------------------------------|
D|-KEYBOARD BASS-|------------------------------------------------|
A|---FOR 8 BARS--|------------------------------------------5-6-7-|
E|---------------|-1----1----1----1----1----1----1----1--6-8------|

            (Repeat This Bit To Fade/End)
G|------------------------------------------|
D|------------------------------------------|
A|-8----8----8----8----8----8----8----5-6-7-|
E|---------------------------------6-8------|

            
Submit corrections

↑ Back to top | Tablatures and chords for acoustic guitar and electric guitar, ukulele, drums are parodies/interpretations of the original songs. You may use it for private study, scholarship, research or language learning purposes only