» » »

Focus - Hocus Pocus Bass

Artists:  A B C D E F G H I J K L M N O P Q R S T U V W X Y Z # 

Hocus Pocus Bass

(ver. 1) Click to play this song!
Focus
 Rating:
4.6/5 (9 votes)

 Hocus Pocus lessons Tabs too difficult? Try these video lessons and learn fast
 
                Artist : Focus

This is the Whole Bass line to the song including all the fills.

Opening Fills
G|------------------------------------------|
D|------------------------------------------|
A|----0--------------rest-------------------|
E|-0----------------------------------------|

G|-----------------------------------------|
D|-----------------------------------------|
A|-------------------rest------------------|
E|-3--3--3--3-5----------------------------|

G|-0h2-2-2-5-2---------|
D|-------------5-2-----|
A|-----------------5-3-|
E|---------------------|
   
Main Riff                                              _
G|-------------------------------------------------|    |
D|-------------------------------------------------|    |
A|---------------------------7--8----x----------7--|    |
E|-5--x-5--x-3h5-5-5-5----x------------8----x-6----|    |
                                                        |- x2
G|--------------------------------------------------|   |
D|--------------------------------------------------|   |
A|---------------------------7--8----x-----------7--|   |
E|-5--x-5--x-3h5-5-5-5----x------------10----x-7----|  _|

G|------------------------------------|
D|------------------------------------|
A|-0----3----5--------5----8----10----|
E|------------------------------------|

1st Drum Solo
G|--------------------------------------------|
D|--------------------------------------------|
A|---------------rest-------------------------|
E|-0-----------------------------3--3--3--3-5-|

1st Vocal Solo
G|-----------------------------------------------------------|
D|-----------------------------------------------------------|
A|--rest-------------------rest--------------------rest------|
E|--------------0/5--------------------0/5~------------------|

G|-/14--14--14--14--14-12-14-12----------|
D|------------------------------14-12----|
A|------------------------------------15-|
E|---------------------------------------|
         
Main Riff                                              _
G|-------------------------------------------------|    |
D|-------------------------------------------------|    |
A|---------------------------7--8----x----------7--|    |
E|-5--x-5--x-3h5-5-5-5----x------------8----x-6----|    |
                                                        |- x2
G|--------------------------------------------------|   |
D|--------------------------------------------------|   |
A|---------------------------7--8----x-----------7--|   |
E|-5--x-5--x-3h5-5-5-5----x------------10----x-7----|  _|

G|------------------------------------|
D|------------------------------------|
A|-0----3----5--------5----8----10----|
E|------------------------------------|

2nd Drum Solo
G|--------------------------------------------|
D|--------------------------------------------|
A|---------------rest-------------------------|
E|-0--------------------------------------0-5-|

2nd Vocal Solo
G|-----------------------------------------|
D|-----------------------------------------|
A|-----------rest--------------------------|
E|-----------------------------------------|

G|-----------------|
D|-----------------|
A|-0-0-0-0-0-0-0-0-|
E|-----------------|x8, slowly building in volume

G|-------------|
D|-------------|
A|-------------|
E|-0-3-0-3-0-5-|
    
1st Guitar Solo                                        _
G|-------------------------------------------------|    |
D|-------------------------------------------------|    |
A|---------------------------7--8----x----------7--|    |
E|-5--x-5--x-3h5-5-5-5----x------------8----x-6----|    |
                                                        |- x2
G|--------------------------------------------------|   |
D|--------------------------------------------------|   |
A|---------------------------7--8----x-----------7--|   |
E|-5--x-5--x-3h5-5-5-5----x------------10----x-7----|  _|

G|------------------------------------|
D|------------------------------------|
A|-0----3----5--------5----8----10----|
E|------------------------------------|


3rd Drum Solo
G|--------------------------------------------|
D|--------------------------------------------|
A|---------------rest-------------------------|
E|-0------------------------------0--3--4-x-5-|

3rd Vocal Solo
G|-----------------------------------------|
D|-----------------------------------------|
A|-----------rest--------------------------|
E|-----------------------------------------|

G|-------|
D|-------|
A|-------|
E|-0-3-5-|

Main Riff                                              _
G|-------------------------------------------------|    |
D|-------------------------------------------------|    |
A|---------------------------7--8----x----------7--|    |
E|-5--x-5--x-3h5-5-5-5----x------------8----x-6----|    |
                                                        |- x2
G|--------------------------------------------------|   |
D|--------------------------------------------------|   |
A|---------------------------7--8----x-----------7--|   |
E|-5--x-5--x-3h5-5-5-5----x------------10----x-7----|  _|

G|------------------------------------|
D|------------------------------------|
A|-0----3----5--------5----8----10----|
E|------------------------------------|

4th Drum Solo
G|--------------------------------------------|
D|--------------------------------------------|
A|---------------rest-------------------------|
E|-0--------------------------------------0-5-|

4th Vocal Solo
G|-----------------------------------------------------------|
D|-----------------------------------------------------------|
A|--rest-------------------rest--------------------rest------|
E|-------------12\5--------------------0/5~------------------|

G|-----------------|
D|-----------------|
A|-0-0-0-0-0-0-0-0-|
E|-----------------|x4, slowly building in volume

G|-----------------4-7-4-----------|
D|-7-7-7-7-7-5---5-------7-4-------|
A|-------------7-------------7-5-7-|
E|---------------------------------|

2nd Guitar Solo                                        _
G|-------------------------------------------------|    |
D|-------------------------------------------------|    |
A|---------------------------7--8----x----------7--|    |
E|-5--x-5--x-3h5-5-5-5----x------------8----x-6----|    |
                                                        |- x2
G|--------------------------------------------------|   |
D|--------------------------------------------------|   |
A|---------------------------7--8----x-----------7--|   |
E|-5--x-5--x-3h5-5-5-5----x------------10----x-7----|  _|

G|------------------------------------|
D|------------------------------------|
A|-0----3----5--------5----8----10----|
E|------------------------------------|

5th Drum Solo
G|--------------------------------------------|
D|--------------------------------------------|
A|---------------rest-------------------------|
E|-0----------------------------------------5-|

Flute Solo
G|-----------------------------------------|
D|-----------------------------------------|
A|-----------rest--------------------------|
E|-----------------------------------------|

G|---------|
D|---------|
A|---------|
E|-0-0-3-4-|

Main Riff                                              _
G|-------------------------------------------------|    |
D|-------------------------------------------------|    |
A|---------------------------7--8----x----------7--|    |
E|-5--x-5--x-3h5-5-5-5----x------------8----x-6----|    |
                                                        |- x2
G|--------------------------------------------------|   |
D|--------------------------------------------------|   |
A|---------------------------7--8----x-----------7--|   |
E|-5--x-5--x-3h5-5-5-5----x------------10----x-7----|  _|

G|------------------------------------|
D|------------------------------------|
A|-0----3----5--------5----8----10----|
E|------------------------------------|

6th Drum Solo
G|--------------------------------------------|
D|--------------------------------------------|
A|---------------rest-------------------------|
E|-0----------------------------------------5-|

Whistling Solo
G|-----------------------------------------|
D|-----------------------------------------|
A|-----------rest--------------------------|
E|-----------------------------------------|

3rd Guitar solo                                        
G|---------------------------------------------------|    
D|---------------------------------------------------|    
A|-----------------------------7--8----x----------7--|    
E|-3h5-5-5-5-x-3h5-5-5-5----x------------8----x-6----|    
                                                        
G|--------------------------------------------------------|   
D|--------------------------------------------------------|   
A|---------------------------------7--8----x-----------7--|   
E|-0-3-4-5--x-5--x-3h5-5-5-5----x------------10----x-7----|  

G|--------------------------------------------------16-14-------------|   
D|--------------------------------------------------------16-14-------|   
A|---------------------------------7--8----x--------------------16-14-|   
E|-0-3-4-5--x-5--x-3h5-5-5-5----x------------8----x-------------------|

G|--------------------------------------------------|
D|--------------------------------------------------|
A|---------------------------7--8----x-----------7--|
E|----x-5--x-3h5-5-5-5----x------------10----x-7----|

G|-------------7-5-7-5---------------12-10-12-10----|
D|--------------------------------------------------|
A|-0----3----5----------5----8----10----------------|
E|--------------------------------------------------|

7th Drum Solo
G|--------------------------------------------------|
D|--------------------------------------------------|
A|---------------rest-------------------------------|
E|-0--------------------------------0-3-0-3-0-3-4-5-|

5th Vocal Solo
G|------------------------------------------------------------------|
D|------------------------------------------------------------------|
A|--rest--------------------------rest--------------------rest------|
E|-------------0-3-0-3-4-5--------------------0/5~------------------|

G|-----------------|
D|-----------------|
A|-0-0-0-0-0-0-0-0-|
E|-----------------|x4, slowly building in volume

G|-5-7-5-7-5-----------------------|
D|-----------7-5---5-7-5-7-5-------|
A|---------------7-----------7-5---|
E|-------------------------------8-|

Main Riff                                              _
G|-------------------------------------------------|    |
D|-------------------------------------------------|    |
A|---------------------------7--8----x----------7--|    |
E|-5--x-5--x-3h5-5-5-5----x------------8----x-6----|    |
                                                        |- x2
G|--------------------------------------------------|   |
D|--------------------------------------------------|   |
A|---------------------------7--8----x-----------7--|   |
E|-5--x-5--x-3h5-5-5-5----x------------10----x-7----|  _|

G|------------------------------------|
D|------------------------------------|
A|-0----3----5--------5----8----10----|
E|------------------------------------|

outro
G|-----------------------------------------------------------|
D|-----------------------------------------------------------|
A|---------------rest--------------------------------------7-|
E|-0-------------------------------0-3-3-4-5-6-6-7--7-9-10---|

| /  slide up
| \  slide down
| h  hammer-on
| p  pull-off
| ~  vibrato
| +  harmonic
| x  Mute note

Have Fun Playing This Great Song.
            
Submit corrections


        Hocus Pocus lessons Hard to play? Try these video lessons and learn fast Hocus Pocus lessons
        
↑ Back to top | Tablatures and chords for acoustic guitar and electric guitar, ukulele, drums are parodies/interpretations of the original songs. You may use it for private study, scholarship, research or language learning purposes only