» » »

Focus - Someones Crying Bass

Artists:  A B C D E F G H I J K L M N O P Q R S T U V W X Y Z # 

Someones Crying Bass

(ver. 1) Click to play this song!
Focus
 Rating:
4.3/5 (28 votes)

 Someones Crying lessons Tabs too difficult? Try these video lessons and learn fast
 
                  [Verse 1]

  3/4                                                 
G|------------|------------|------------|------------|------------|------------|
D|------------|------------|------------|------------|------------|------------|
A|------------|------------|------------|------------|------------|------------|
E|8-----------|------------|3-----------|------------|11----------|------------|


  3/4                                                 
G|------------|------------|------------|------------|------------|------------|
D|------------|------------|------------|------------|------------|------------|
A|------------|------------|8-----------|------------|------------|------------|
E|8-----------|------------|------------|------------|4-----------|------------|


  3/4                                                 
G|------------|------------|------------|------------|
D|------------|------------|------------|------------|
A|------------|------------|------------|------------|
E|10----------|------------|3-----8-8---|------------|


  [Verse 2]

  3/4                                                 
G|------------|------------|------------|------------|------------|------------|
D|------------|------------|------------|------------|------------|------------|
A|------------|------------|------------|------------|------------|------------|
E|8-----------|------------|3-----------|------------|11----------|------------|


  3/4                                                 
G|------------|------------|------------|------------|------------|------------|
D|------------|------------|------------|------------|------------|------------|
A|------------|------------|8-----------|------------|------------|------------|
E|8-----------|------------|------------|------------|4-----------|------------|


  3/4                                                 
G|------------|------------|------------|------------|
D|------------|------------|------------|------------|
A|------------|------------|------------|------------|
E|10----------|------------|3-----8-8---|------------|


  [Bridge]


  at 00:53                                                
G|------------|------------|------------|------------|------------|
D|------------|------------|------------|------------|------------|
A|------------|------------|------------|------------|10----------|
E|8-----------|------------|------------|------------|---8--------|


  at 1:05
G|------------|
D|------------|
A|10----------|
E|----8-------|


  at 1:12
G|------------|
D|------------|
A|10----------|
E|----8-------|


  at 1:20
G|------------|
D|------------|
A|------------|
E|11----------|


 at 1:24
G|------------|
D|------------|
A|------------|
E|10----------|


  [Verse 3]

  3/4                                                 
G|------------|------------|------------|------------|------------|------------|
D|------------|------------|------------|------------|------------|------------|
A|------------|------------|------------|------------|------------|------------|
E|8-----------|------------|3-----------|------------|11----------|------------|


  3/4                                                 
G|------------|------------|------------|------------|------------|------------|
D|------------|------------|------------|------------|------------|------------|
A|------------|------------|8-----------|------------|------------|------------|
E|8-----------|------------|------------|------------|4-----------|------------|


  3/4                                                 
G|------------|------------|------------|------------|
D|------------|------------|------------|------------|
A|------------|------------|------------|------------|
E|10----------|------------|3-----8-8---|------------|



 [Bridge]

  at 02:00                                                
G|------------|------------|------------|------------|------------|
D|------------|------------|------------|------------|------------|
A|------------|------------|------------|------------|10----------|
E|8-----------|------------|------------|------------|---8--------|

  at 2:12
G|------------|
D|------------|
A|10----------|
E|----8-------|


  at 2:19
G|------------|
D|------------|
A|10----------|
E|----8-------|


  at 2:26
G|------------|
D|------------|
A|------------|
E|11----------|


 at 2:30
G|------------|
D|------------|
A|------------|
E|10----------|



  [Verse 4]

  3/4                                                 
G|------------|------------|------------|------------|------------|------------|
D|------------|------------|------------|------------|------------|------------|
A|------------|------------|------------|------------|------------|------------|
E|8-----------|------------|3-----------|------------|11----------|------------|


  3/4                                                 
G|------------|------------|------------|------------|------------|------------|
D|------------|------------|------------|------------|------------|------------|
A|------------|------------|8-----------|------------|------------|------------|
E|8-----------|------------|------------|------------|4-----------|------------|


  3/4                                                 
G|------------|------------|------------|------------|
D|------------|------------|------------|------------|
A|------------|------------|------------|------------|
E|10----------|------------|3-----8-8---|------------|

            
Submit corrections


        Someones Crying lessons Hard to play? Try these video lessons and learn fast Someones Crying lessons
        
↑ Back to top | Tablatures and chords for acoustic guitar and electric guitar, ukulele, drums are parodies/interpretations of the original songs. You may use it for private study, scholarship, research or language learning purposes only