» » »

Focus - Focus 2 Tabs

Artists:  A B C D E F G H I J K L M N O P Q R S T U V W X Y Z # 

Focus 2 Tabs

(ver. 1) Click to play this song!
Focus
 Rating:
4/5 (4 votes)

 Focus 2  lessons Tabs too difficult? Try these video lessons and learn fast
 
                As recorded by Focus
(From the 1971 Album FOCUS II (MOVING WAVES))

Music by Thijs van Leer

Transcribed by Slowhand


Gtr I (E A D G B E) - 'Jan Akkerman - El. Guitar (Clean)'
Gtr II (E A D G B E) - 'Jan Akkerman - El. Guitar (Overdriven)'
Gtr III (E A D G B E) - 'Thijs van Leer - Organ'
Gtr IV (E A D G B E) - 'Thijs van Leer - Piano'


  Q=74
  N.C.
 4/4
  Gtrs III, IV (Organ & Piano arr. for Gtr.)
  Q.   E Q  Q    Q.   E Q  Q    Q.   E Q  Q    H.      Q
|--------------|-6----6-6--5--|--------------|------------|
|-3----3-5--6--|--------------|-3----3-5--6--|------------|
|--------------|--------------|--------------|-5----------|
|--------------|--------------|--------------|------------|
|--------------|--------------|--------------|------------|
|--------------|--------------|--------------|------------|


  Gtrs I, IV
   
  E   Q.    q  q     E  E E  e H      E   Q.   q  E E    +H     H
|---/12----10--8--|-10-10-8-10------|---/12S==10--8S7-||-(7)---------|
|-----------------|-----------------|-----------------||-------------|
|----/9-----7--5--|--7--7-5--7------|----/9S===7--5S4-||-(4)---------|
|-----------------|-----------------|-----------------||-------------|
|-----------------|-----------------|-----------------||-------------|
|-----------------|-----------------|-----------------||-------------|


           Gtr II
                                                     |-3-|
  W           H    E E E E   Q.   S S H      +Q.   E Q Q Q
|----------||--------------|---------------|----------------|
|----------||--------------|---------------|----------------|
|----------||--------------|---------------|----------------|
|----------||--------2-4-5-|-4----5p4-2----|-(2)-----2-4-5S=|
|----------||--------------|---------------|----------------|
|----------||--------------|---------------|----------------|


   >
                        |-3-|                           |-3-|
   Q.    E  H      H    Q Q Q   Q.   S S H      +Q.   E Q Q Q
|----------------|------------|---------------|-----------------|
|----------------|------------|---------------|-----------------|
|----------------|------------|---------------|-----------------|
|-12----10-10----|------2-4-5-|-4----5p4-2----|-(2)-----2-4-5S==|
|----------------|------------|---------------|-----------------|
|----------------|------------|---------------|-----------------|


   >
   Q.    E  Q.   a E   E. S H    +E  E   E S S H    E a E   E. S +H     E  E
|--------------------|-----------------|------------------|-----------------|
|--------------------|-----------------|------------------|--------------------|
|----------------4s5-|-5-------------5-|-5-7p5p4------3s4-|-4------------------|
|-12----10-10--------|----3-3----(3)---|------------------|----2-(2)-----------|
|--------------------|-----------------|------------------|--------------------|
|--------------------|-----------------|------------------|--------------------|


   E.   S    H     E a E   E. S +H     E  E
|-------------|----------------|
|------------------------|-------------------|
|--------------------3s4-|-4-----------------|
|------------------------|----2-(2)----------|
|------------------------|-------------------|
|------------------------|-------------------|


   E.   S    H     E a E   E. S Q  E E E E
|-------------|-------------------|
|------------------------|-------------------|
|--------------------3s4-|-4---------1-2-4---|
|------------------------|----2-2------------|
|------------------------|-------------------|
|------------------------|-------------------|


  H=H
  ~~               ~~            ~~               ~~
  H.      E E      H.      E E   H.      E E      H.      E E
|----------------|-------------|----------------|-------------|
|----------------|-------------|----------------|-------------|
|-5-------7-5tr7-|-4-------2-4-|-5-------7-5tr7-|-4-------2-4-|
|----------------|-------------|----------------|-------------|
|----------------|-------------|----------------|-------------|
|----------------|-------------|----------------|-------------|


  ~~               ~~            ~~
  H.      E E      H.      E E   H.      E E
|----------------|-------------|----------------|
|----------------|-------------|----------------|
|-5-------7-5tr7-|-4-------2-4-|-5-------7-5tr7-|
|----------------|-------------|----------------|
|----------------|-------------|----------------|
|----------------|-------------|----------------|


               H.=H
  ~~           ~~
  H.      Q    Q.   E E E Q    W          +W
|------------|---------------|----------|---------*|
|------------|---------------|----------|---------*|
|-4-------6--|-4----3-3------|----------|---------*|
|------------|----------6-4--|-3--------|-(3)\----*|
|------------|---------------|----------|---------*|
|------------|---------------|----------|---------*|
            
Submit corrections


        Focus 2  lessons Hard to play? Try these video lessons and learn fast Focus 2  lessons
        
↑ Back to top | Tablatures and chords for acoustic guitar and electric guitar, ukulele, drums are parodies/interpretations of the original songs. You may use it for private study, scholarship, research or language learning purposes only