» » »

Fm Static - Moment Of Truth Tabs

Artists:  A B C D E F G H I J K L M N O P Q R S T U V W X Y Z # 

Moment Of Truth Tabs

(ver. 3) Click to play this song!
Fm Static
 Rating:
4.4/5 (7 votes)

 Moment Of Truth lessons Tabs too difficult? Try these video lessons and learn fast
 
                

This is my tab of the song without the capo on the first fret, this is just on 
standard tuning, this is easy and fun to play.


Lead Guitar:

(Intro)

 e|--3-1-----------------3-2-----------------------------|
 B|------3-2-3-3--5-5--------3-2-3---3-2-----------------|
 G|--------------------------------2------2--------------|
 D|------------------------------------------------------|
 A|------------------------------------------------------|
 E|------------------------------------------------------|

(Refrain)*

 and she means every little thing to me..
 e|---3-2----------------------------------------------|
 B|-------3-2-4-3-2-2h3p2/3b---------------------------|
 G|----------------------------------------------------|
 D|----------------------------------------------------|
 A|----------------------------------------------------|
 E|----------------------------------------------------|
*This part is done just before the start of the 1st and 3rd chorus..
 this is played quick..

(Solo)

 e|----------------------------------------------------|
 B|--3-3---5-5---7-7---3-3---5-5---3-------------------|
 G|----------------------------------2-----------------|
 D|----------------------------------------------------|
 A|----------------------------------------------------|
 E|----------------------------------------------------|
                                                         (X2)
 e|----------------------------------------------------|
 B|--3-3---5-5---7-7---5/3---3-3--5--------------------|
 G|---------------------------------4-5-6--4*----------|
 D|----------------------------------------------------|
 A|----------------------------------------------------|
 E|----------------------------------------------------|

*don't play the last note on the second time.



Rhythm Guitar:

(Intro, Verse, Chorus and Solo parts)

      A        F#m         D          E
 e|------------------------2----------------------------|
 B|---2---------2----------3----------------------------|
 G|---2---------2----------2----------1-----------------|
 D|---2---------4---------------------2-----------------|
 A|-------------4---------------------2-----------------|
 E|-----------------------------------------------------|


(Refrain)*

      A         D         F#m*        E
 e|-------------2---------------------------------------|
 B|---2---------3----------2----------------------------|
 G|---2---------2----------2----------1-----------------|
 D|---2--------------------4----------2-----------------|
 A|------------------------4----------2-----------------|
 E|-----------------------------------------------------|

*strum each chord twice and stop the strings, don't let it ring, watch out for the timing..

-The last chord for this song is A..strum it just once..




Lyrics:

(1st Verse)
Here we are, in the best years of our lives.
With no way of knowing,
When the wheel stop spinning cause we don't
Know where we're going
And here we are, on the best day of our lives.
And it's a go, lets make it last, so cheers you
All to that, 'cause this moment's never comin' back

(Refrain)
I used to know her brother, but I never
Knew I loved her, 'till the day she laid her eyes on me.
Now I'm jumpin' up and down,
She's the only one around, and she means
Every little thing to me.

(Chorus)
I've got your picture in my wallet, and your
Phone number to call it, and I miss you more,
Whenever I think about you,. I've got
Your mixed tape in my Walkman, been so
Long since we've been talkin' and in a few
More days, we'll both hook up, forever and ever

(2nd Verse)
And here I am, on the west coast of
America and I've been tryin' to think for weeks of
All the ways to ask you, And now
I've brought you to the place, Where I've
Poured my heart out, a million times, for a million
Reasons, To offer it to you

(Refrain)
I used to know her brother, but I never
Knew I loved her, 'till the day she laid her
Eyes on me. Now I'm jumpin' up and down,
She's the only one around, and she means
Every little thing to me

(Chorus)
I've got your picture in my wallet, and your
Phone number to call it, and I miss you more,
Whenever I think about you,. I've got
Your mixed tape in my Walkman, been so
Long since we've been talkin' and in a few
More days, we'll both hook up, forever and ever

(Break - Solo)

(Refrain)
I used to know her brother, but I never
Knew I loved her, 'till the day she laid her
Eyes on me. Now I'm jumpin' up and down,
She's the only one around, and she means
Every little thing to me

(Chorus)
I've got your picture in my wallet, and your
Phone number to call it, and I miss you more,
Whenever I think about you,. I've got
Your mixed tape in my Walkman, been so
Long since we've been talkin' and in a few
More days, we'll both hook up, forever and ever

=I dedicate this tab to my girl Eileen..i love you my angel..
            
Submit corrections


        Moment Of Truth lessons Hard to play? Try these video lessons and learn fast Moment Of Truth lessons
        
↑ Back to top | Tablatures and chords for acoustic guitar and electric guitar, ukulele, drums are parodies/interpretations of the original songs. You may use it for private study, scholarship, research or language learning purposes only