Home » F » Fm Static »

Fm Static - Moment Of Truth Tabs

Artists:  A B C D E F G H I J K L M N O P Q R S T U V W X Y Z # 

Moment Of Truth Tabs

(ver. 2) Click to play this song!
Fm Static
_______________________________________________________________________

TUNING: 1  2  3  4  5  6
        eb Bb Gb Db Ab Eb

LEGENDS: 
~ - Let Ring
“ – Keep Strumming Till Next Chord
x – Mute Note
\ - Slide Out
G1 – Lead Guitar
G2 – Rhythm Guitar

NOTE: Strumming pattern is not shown.

_______________________________________________________________________
INTRO

G1
:----2-0-----------0-0~~~----2-0-----------------------:
:--------3-2-3~-3----------------3-2-3----3--2---------:
:--------------------------------------2~-------2~~~---:
:------------------------------------------------------:
:------------------------------------------------------:
:------------------------------------------------------:

G2
:------------------------------------------------------:
:------------------------------------------------------:
:-7--------4--------------7--------4-------------------:
:-7--------4----5----7----7--------4------5-------7----:
:-5”-------2”---5----7----5”-------2”-----5-------7----:
:---------------3”---5”-------------------3”------5”---:

_______________________________________________________________________
VERSE

G1, G2
:------------------------------------------------------:
:------------------------------------------------------:
:-7------4-------------------7------4------------------:
:-7------4------5------7-----7------4------5------7----:
:-5”-----2”-----5------7-----5”-----2”-----5------7----:
:---------------3”-----5”------------------3”-----5”---: [x2]

_______________________________________________________________________
PRE-CHORUS

G1, G2
:--------------------------------------------------:
:--------------------------------------------------:
:-77xx----------------44xx-------------------------:
:-77xx------55xx------44xx------77xx---------------:
:-55xx-[x2]-55xx------22xx-[x2]-77xx---------------:
:-----------33xx-[x2]-----------55xx-[x2]----------:

G1
:-------------------------------2-0---2-0---2-0----:
:-----------------------------------3-----3-----3~-:
:-77xx----------------44xx-------------------------:
:-77xx------55xx------44xx-------------------------:
:-55xx-[x2]-55xx------22xx-[x2]--------------------:
:-----------33xx-[x2]------------------------------:

G2
:--------------------------------------------------:
:--------------------------------------------------:
:-77xx----------------44xx-------------------------:
:-77xx------55xx------44xx------77xx---------------:
:-55xx-[x2]-55xx------22xx-[x2]-77xx---------------:
:-----------33xx-[x2]-----------55xx-[x2]----------:

_______________________________________________________________________
CHORUS

G1, G2
:---------------------------------------------------:
:---------------------------------------------------:
:-7-7—-xx4-4—-xx----------------7----4--------------:
:-7-7—-xx4-4—-xx5-5—-xx7--7--7--7----4----5----7----:
:-5-5—-xx2-2—-xx5-5—-xx7--7--7—-5”---2”---5----7----:
:---------------3-3—-xx5--5--5------------3”---5”---: [x2]

_______________________________________________________________________
VERSE

G1, G2
:------------------------------------------------------:
:------------------------------------------------------:
:-7------4-------------------7------4------------------:
:-7------4------5------7-----7------4------5------7----:
:-5”-----2”-----5------7-----5”-----2”-----5------7----:
:---------------3”-----5”------------------3”-----5”---: [x2]

_______________________________________________________________________
PRE-CHORUS

G1
:-----------------------------------------:
:-----------------------------------------:
:-77xx----------------44xx----------------:
:-77xx------55xx------44xx------77xx------:
:-55xx-[x2]-55xx------22xx-[x2]-77xx------:
:-----------33xx-[x2]-----------55xx-[x2]-:

G2
:-----------------------------------------:
:-----------------------------------------:
:-77xx----------------44xx----------------:
:-77xx------55xx------44xx------77xx------:
:-55xx-[x2]-55xx------22xx-[x2]-77xx------:
:-----------33xx-[x2]-----------55xx-[x2]-:

_______________________________________________________________________
CHORUS

G1
:---5------5------5----2-0--------------------------:
:-3------3------3-----------------------------------:
:-------------------------------7----4--------------:
:-------------------------------7----4----5----7----:
:-------------------------------5”---2”---5----7----:
:-----------------------------------------3”---5”---:

G2
:---------------------------------------------------:
:---------------------------------------------------:
:-7-7—-xx4-4—-xx----------------7----4--------------:
:-7-7—-xx4-4—-xx5-5—-xx7--7--7--7----4----5----7----:
:-5-5—-xx2-2—-xx5-5—-xx7--7--7—-5”---2”---5----7----:
:---------------3-3—-xx5--5--5------------3”---5”---: [x2]

_______________________________________________________________________
SOLO
                                       -----
G1                                         |
:--------------------------------------:   |
:--3-3--5-5--7-7~~~--3-3--5-5--3-------:   |
:--------------------------------2~~~--:   |
:--------------------------------------:   |
:--------------------------------------:   |
:--------------------------------------:   |
                                           |
G2                                         |
:--------------------------------------:   |
:--------------------------------------:   |
:-7--------4---------------------------:   |
:-7--------4--------5--------7---------:   |
:-5”-------2”-------5--------7---------:   |
:-------------------3”-------5”--------:   |
                                            > [x2]
G1                                         |
:----------------------------------------: |
:--3-3--5-5--7-7—-5\3--3-3--5------------: |
:-----------------------------4--6-6--4~-: |
:----------------------------------------: |
:----------------------------------------: |
:----------------------------------------: |
                                           |
G2                                         |
:----------------------------------------: |
:----------------------------------------: |
:-7--------4-----------------------------: |
:-7--------4---------5---------7---------: |
:-5”-------2”--------5---------7---------: |
:--------------------3”--------5”--------: |
                                           |                        
                                       -----
_______________________________________________________________________
PRE-CHORUS

G1, G2
:--------------------------------------------------:
:--------------------------------------------------:
:-77xx----------------44xx-------------------------:
:-77xx------55xx------44xx------77xx---------------:
:-55xx-[x2]-55xx------22xx-[x2]-77xx---------------:
:-----------33xx-[x2]-----------55xx-[x2]----------:

G1
:-------------------------------2-0---2-0---2-0----:
:-----------------------------------3-----3-----3~-:
:-77xx----------------44xx-------------------------:
:-77xx------55xx------44xx-------------------------:
:-55xx-[x2]-55xx------22xx-[x2]--------------------:
:-----------33xx-[x2]------------------------------:

G2
:--------------------------------------------------:
:--------------------------------------------------:
:-77xx----------------44xx-------------------------:
:-77xx------55xx------44xx------77xx---------------:
:-55xx-[x2]-55xx------22xx-[x2]-77xx---------------:
:-----------33xx-[x2]-----------55xx-[x2]----------:

_______________________________________________________________________
OUTRO CHORUS

G1
:---5------5------5----2-0------2-0---2-0---2-0---5-5-2-2-0-----:
:-3------3------3-------------------3-----3-----3-----------3-3-:
:---------------------------------------------------------------:
:---------------------------------------------------------------:
:---------------------------------------------------------------:
:---------------------------------------------------------------: [x2]

G2
:---------------------------------------------------------------:
:---------------------------------------------------------------:
:-7-7—-xx4-4—-xx----------------7----------4--------------------:
:-7-7—-xx4-4—-xx5-5—-xx7--7--7--7----------4-----5---------7----:
:-5-5—-xx2-2—-xx5-5—-xx7--7--7—-5”---------2”----5---------7----:
:---------------3-3—-xx5--5--5-------------------3”--------5”---: [x2]

Then end with...

G1
:--------:
:-3~~~~~-:
:-2~~~~~-:
:-0~~~~~-:
:--------:
:--------:

G2
:--------:
:--------:
:-7~~~~~-:
:-7~~~~~-:
:-5~~~~~-:
:--------:

_______________________________________________________________________
END
            
Submit corrections

↑ Back to top | Tablatures and chords for acoustic guitar and electric guitar, ukulele, drums are parodies/interpretations of the original songs. You may use it for private study, scholarship, research or language learning purposes only