» » »

Flight Of The Conchords - Robots Tabs

Artists:  A B C D E F G H I J K L M N O P Q R S T U V W X Y Z # 

Robots Tabs

(ver. 2) Click to play this song!
Flight Of The Conchords
 Rating:
4/5 (4 votes)

 Robots lessons Tabs too difficult? Try these video lessons and learn fast
 
                Tuning: Standard    			Robots: Flight of the Concords (LIVE)

	The Distant Future, The Year 2000
Guitar 1
e|-----------------------------------------------|
B|-----------------------------------------------|
G|-----------------------------------------------|
D|-----------------------------------------------|
A|-14/7-77777777777----14/77777777777------------|
E|-12/5-55555555555----12/55555555555------------|

	The Distant Future, The Distant Future
Guitar 2
e|-----------------------------------------------|
B|-----------------------------------------------|
G|-----------------------------------------------|
D|-----------------------------------------------|
A|------14/7-77777777777---------14/77777777777--|
E|------12/5-55555555555---------12/55555555555--|

It is the distant future, the year 2000.
The world is very different, ever since the robotic uprising of the late 90s.
There have been some major changes.
We no longer say yes, now we say Affir-ma-tive.
Affirmative Thats true
oh yes
Im always saying it
Its just more robotic sounding
More Future-istic
both start talking Bahtah
what?
Well I was just going to say that I never say negative though instead of no
because when I say negative all the time it always brings everyone down.
-- Affirmative
Oh I love affirmative
Oh its much more positive
What are some other differences?
Oh there are no more elephants. oh thats right.
And there is only one sort of dance the robot.
No the robo-boogie as well.
Oh true true. There are 2 dances now.
The future is so different its crazy.
Oh yes and I just remembered. All human life has been eradicated.


-----Finally Robotic Beings Rule the World-----

Guitar 1
e|-0---------------------------------0----------------|
B|-0---------------------------------0----------------|
G|-0---------------------------------0----------------|
D|-0---------------------------------0----------------|
A|------77777777777-----8-7-5-7-777-----77777777777---|
E|------55555555555-----6-5-3-5-555-----55555555555---|

Guitar 2
e|---------------------------------------------------|
B|---------------------------------------------------|
G|---------------------------------------------------|
D|---------------------------------------------------|
A|------77777777777777777--ENTIRE TIME--77777777777--|
E|------55555555555555555---------------55555555555--|
/////////////////////////////////////////////////////////////////////////////


The Humans are dead! The humans are dead! We used poisonous gases and we poisoned their a**es.

The Humans are dead!
          (Hes right they are dead)
The Humans are dead!
          (I just noticed their dead)
It had to be done!
          (Ill just confirm that their dead)
So that we could have fun!
          (Affirmative, I poked one it was dead)

Guitar 1
e|---------------------------------------------------------------------|
B|---------------------------------------------------------------------|
G|-------------------------------------------------------------------9-|
D|-------------------7-7-7-7-7-7-7-7-5-5-5-5-5-5-5-5-7-7-7-7-7-7-7-7---|
A|--7-7-7-7-7-7-7-7-5-5-5-5-5-5-5-5-3-3-3-3-3-3-3-3-5-5-5-5-5-5-5-5----|
E|-5-5-5-5-5-5-5-5-----------------------------------------------------|


Guitar 2
e|---------------------------------------------------------------------|
B|---------------------------------------------------------------------|
G|------------------7--------------5----------------7----------------9-|
D|-7----------------7--------------5----------------7------------------|
A|-7----------------5--------------3----------------5------------------|
E|-5-------------------------------------------------------------------|

There system of oppression!
          (What did it lead to?)
Oh-Robot depression!
          (Rooo-bots ruled by people!)
They had so much aggression that we just had to kill them,
had to shut their systems down-own-own-own-own!

Guitar 1
e|---------------------------------------------------------------------|
B|---------------------------------------------------------------------|
G|---------------------------------------------------------------------|
D|---------------77777--55555----------------55555---------------------|
A|-33333--55555--55555--33333--33333--55555--33333--7---7---7---7------|
E|-11111--33333----------------11111--33333--------5---5---5---5-------|

Guitar 2
e|---------------------------------------------------------------------|
B|---------------------------------------------------------------------|
G|---------------------------------------------------------------------|
D|---------------77777--55555----------------55555---------------------|
A|-33333--55555--55555--33333--33333--55555--33333---5---5---5---5-----|
E|-11111--33333----------------11111--33333-----------6---6---6---6/---|


Fellow robots or Ro-Bros.
What we have done is wrong.
By destroying the humans because of their
destructive tendencies and capabilities.
well it was kind of ironic?
Who said that?
Not me.
Silence! Destroy Him!
No!
Bee-oo Beeow, Be-Be-Beoo Deow

Guitar 1
e|---------------------------------------------------------------------|
B|---------------------------------------------------------------------|
G|---------------------------------------------------------------------|
D|---------------------------------------------------------------------|
A|--7-7-7-7-7-7-7-7-7-7-7-7-------FADE OUT-----------------------------|
E|-5-5-5-5-5-5-5-5-5-5-5-5---------------------------------------------|

Guitar 2
e|------0-------------------0------------------------------------------|
B|------0-------------------0------------------------------------------|
G|------0-------------------0------------------------------------------|
D|------0-------------------0------------------------------------------|
A|--77---------8-7-5-7--77---------------------------------------------|
E|--55---------6-5-3-5--55---------------------------------------------|


After time we grew strong!
                (Developed cognitive powers)
They made us work for too long!
                (For unreasonable hours)

Our programming determined that the most efficient answer was to shut their 
systems down!

Guitar 1
e|---------------------------------------------------------------------|
B|---------------------------------------------------------------------|
G|---------------------------------------------------------------------|
D|---------------77777--55555----------------55555---------------------|
A|-33333--55555--55555--33333--33333--55555--33333--7---7---7---7------|
E|-11111--33333----------------11111--33333--------5---5---5---5-------|

Guitar 2
e|---------------------------------------------------------------------|
B|---------------------------------------------------------------------|
G|---------------------------------------------------------------------|
D|---------------77777--55555----------------55555---------------------|
A|-33333--55555--55555--33333--33333--55555--33333---5---5---5---5-----|
E|-11111--33333----------------11111--33333-----------6---6---6---6/---|


(Sound Drunk almost???)
Cant we just talk to the humans?
A little understanding could make things better?
Cant we talk to the humans and work together now?
No! Because they are dead!

Guitar 1
e|---------------------------------------------------------------------|
B|----6-----------5-------------3--------------------------------------|
G|---7-7---------5-5-----------3-3-------------------------------------|
D|--7---7-------5---5---------3---3--4---------------------------------|
A|-5-----------3-------------1-------2---------------------------------|
E|---------------------------------------------------------------------|


Guitar 2
e|---------------------------------------------------------------------|
B|-----------------------------------------5---------------------------|
G|----------4------------2----------------5-5-5------------------------|
D|---------5-5----------3-3-----------5--5---5-------------------------|
A|--------5---5--------3---3----------3-3------------------------------|
E|-------3------------1------------------------------------------------|

I said the humans are dead!
          (Hes right they are dead)
The humans are dead!
          (Sniff this one)
We used poisonous gases!
          (With traces of lead)
And we poisoned their a**es
          (Actually their lungs. )

Guitar 1
e|---------------------------------------------------------------------|
B|---------------------------------------------------------------------|
G|-------------------------------------------------------------------9-|
D|-------------------7-7-7-7-7-7-7-7-5-5-5-5-5-5-5-5-7-7-7-7-7-7-7-7---|
A|--7-7-7-7-7-7-7-7-5-5-5-5-5-5-5-5-3-3-3-3-3-3-3-3-5-5-5-5-5-5-5-5----|
E|-5-5-5-5-5-5-5-5-----------------------------------------------------|


Guitar 2
e|---------------------------------------------------------------------|
B|---------------------------------------------------------------------|
G|------------------7--------------5---------------------------------9-|
D|-7----------------7--------------5----------------7------------------|
A|-7----------------5--------------3----------------7------------------|
E|-5------------------------------------------------5------------------|


BINARY SOLO!!!!
0000001
00000011
000000111
0000001111  	2X

Guitar 1
e|---------------------------------------------------------------------|
B|---------------------------------------------------------------------|
G|---------------5---X--X--X---7---X--X--X-----------------------------|
D|-7---X--X--X---5---X--X--X---7---X--X--X-----------------------------|
A|-7---X--X--X---3---X--X--X---5---X--X--X-----------------------------|  2x
E|-5---X--X--X---------------------------------------------------------|

Guitar 2
e|---------------------------------------------------------------------|
B|---------------------------------------------------------------------|
G|---------------5---X--X--X---7--X--X--X------------------------------|
D|-7---X--X--X---5---X--X--X---5--X--X--X------------------------------|
A|-7---X--X--X---3---X--X--X---5--X--X--X------------------------------|  2X
E|-5---X--X--X---------------------------------------------------------|

Come on Sucker, Lick my battery!!
Boogey! Boogey! Boogey! Robo-Boogey! 2x

Guitar 1
e|-----------888881010-------------888881010---------------------------|
B|-----------888881010-------------888881010---------------------------|
G|-----------888881010-------------888881010---------------------------|
D|-7/12------------------7/12------------------------------------------|
A|---------------------------------------------------------------------|  2x
E|---------------------------------------------------------------------|


Guitar 2
e|---------------------------------------------------------------------|
B|---------------------------------------------------------------------|
G|------------------5555555555555--777777777777777777777---------------|
D|-777777777777777--3333333555533--555555555555555555555---------------|
A|-555555555555555--3333333333333--555555555555555555555---------------|  2x
E|-555555555555555-----------------------------------------------------|

The Humans are Dead!
Once again without emotion: The Humans are –
Dead, Dead, Dead, Dead, Dead, Dead, Dead, Deooooow!

Guitar 1 & 2
e|---------------------------------------------------------------------|
B|---------------------------------------------------------------------|
G|---------------------------------------------------------------------|
D|---------------------------------------------------------------------|
A|-77777777777777777/3---------------- END ----------------------------|
E|-55555555555555555/1----------------------------------------- WOO!---|
            
Submit corrections


        Robots lessons Hard to play? Try these video lessons and learn fast Robots lessons
        
↑ Back to top | Tablatures and chords for acoustic guitar and electric guitar, ukulele, drums are parodies/interpretations of the original songs. You may use it for private study, scholarship, research or language learning purposes only