» » »

Flight Of The Conchords - Most Beautiful Girl In The Room Tabs

Artists:  A B C D E F G H I J K L M N O P Q R S T U V W X Y Z # 

Most Beautiful Girl In The Room Tabs

(ver. 1) Click to play this song!
Flight Of The Conchords
 Rating:
4/5 (4 votes)

 Most Beautiful Girl In The Room lessons Tabs too difficult? Try these video lessons and learn fast
 
                -------------------------------------------------------------------------------
-------------------------------------------------------------------------------

Tuning:Standard

Okay, so I am very sure on this one, but it's always
played different, just cause it's by the conchords.
But this, I just saw it on David Letterman...
Like..two minutes ago.
Anyways, here we go, ill show it in parts.

Verse Chords:
e|---5---x---x---x--x---|
B|---7---5---3---7--5---|
G|---6---6---4---6--6---|
D|---x---6---4---7--6---|
A|---x---x---x---x--x---|
E|---x---x---x---x--x---|
I think Jermaine hammerons his pinky onto the last note
of all those chords a lot of the time
and the last chord might look like xx545x, not sure, both sound pretty good.
also, take note that jermaine plays x02120 instead of the chord bret plays.

Verse Riff: (played during last two chords of the verse chords)
e|---9h10p9-7h9p7-5h7p5---------|
B|----------------------5h7p5---|
G|------------------------------|
D|------------------------------|
A|------------------------------|
E|------------------------------|
Bret plays something different, but this is all I could work out,
and it sounds fine.

somewhere along that, bret gets to the third chord and quickly plays

A|-----------------|
E|--5--7-------8b--|

Bridge-y deal?: (when he says something about dance moves)
e|---0---0---|
B|---5---6---|
G|---6---7---|
D|---6---7---|
A|---x---x---|
E|---x---x---|

Some other chord change: (when he says "you could be a part time model")
e|---7---9----|
B|---7---9----|
G|---7---9----|  on david letterman he doesn't play the second chord
D|---7---9----|  but it sounds like he's playing it..or a D..on the
A|---9---11---|  recording
E|---7---9----|  
and afterwards, he plays a harmonic on the high 
strings on 12

Now the verse just continues with his high singing, and eventually, they end with x0212x


| b(n) bend to that note(n) on that string
| b  bend half
| /  slide up
| \  slide down
| h  hammer-on
| p  pull-off
| ~  vibrato
| +  harmonic
| x  Mute note
===============================================================================
            
Submit corrections


        Most Beautiful Girl In The Room lessons Hard to play? Try these video lessons and learn fast Most Beautiful Girl In The Room lessons
        
↑ Back to top | Tablatures and chords for acoustic guitar and electric guitar, ukulele, drums are parodies/interpretations of the original songs. You may use it for private study, scholarship, research or language learning purposes only