Home » F » Flight Of The Conchords »

Flight Of The Conchords - Petrov Yelyena And Me Tabs

Artists:  A B C D E F G H I J K L M N O P Q R S T U V W X Y Z # 

Petrov Yelyena And Me Tabs

(ver. 1) Click to play this song!
Flight Of The Conchords
 Rating:
4/5 (4 votes)
                Petrov Yelyena and Me
Flight of the Conchords


This is only meant to get you started


This is a great song to play around other people, while FoTC has become quite popular,
song remains mostly unknown. That being said there are a few things to know before
to learn this song:

Unlike most FoTC songs, this is a waltz and is played in 3/3 time signature, for those
of what that means think of every Chord as divided into 3 parts. 1st is the Bass, and 2nd
3rd are the rhythm, it sounds much better if you play the bass once, and the rhythm 4 
for the sake of simplicity i have tabbed out only 2 beats of the rhythm.

Intro:

   A

e|---------|---------|
B|-----5--5|-----5--5|
G|-----6--6|-----6--6|
D|-----7--7|-----7--7|  X2
A|-----7--7|-----7--7|
E|--5------|--0------|

Verse (the bass note matches up to which the upper case letter of the word you should sing:

   A
|---------|---------|---------|---------|---------|---------|
|-----5--5|-----5--5|-----5--5|-----5--5|-----5--5|-----5--5|
|-----6--6|-----6--6|-----6--6|-----6--6|-----6--6|-----6--6|
|-----7--7|-----7--7|-----7--7|-----7--7|-----7--7|-----7--7|
|-----7--7|-----7--7|-----7--7|-----7--7|-----7--7|-----7--7|
|--5------|--0------|--5------|--0------|--5------|--0------|

  pEtrov   yeLena and  Me                  Lost  but Happy at

  E                    D         A
|---------|---------|---------|---------|---------|---------|
|-----9--9|-----9--9|-----7--7|-----7--7|-----5--5|-----5--5|
|-----9--9|-----9--9|-----7--7|-----7--7|-----6--6|-----6--6|
|-----9--9|-----9--9|-----7--7|-----7--7|-----7--7|-----7--7|
|--7--7--7|-----7--7|--5--5--5|-----5--5|-----7--7|-----7--7|
|---------|--7------|---------|--5------|--5------|--0------|

   Sea                 Petrov    Yelena    Me

   E         D         A
|---------|---------|---------|---------|---------|---------|
|--9------|--7------|-----5--5|-----5--5|-----5--5|-----5--5|
|--9------|--7------|-----6--6|-----6--6|-----6--6|-----6--6|
|--9------|--7------|-----7--7|-----7--7|-----7--7|-----7--7|
|--7------|--5------|-----7--7|-----7--7|-----7--7|-----7--7|
|---------|---------|--5------|--0------|--5------|--0------|
   Would'nt sOmething Eat                                 well


   (let these chords ring)
   A         C#m       G         Bm                  D         E
|--5------|--4------|--3------|--2------|---------|--5------|--7------|
|--5------|--5------|--3------|--3------|---------|--7------|--9------|
|--6------|--6------|--4------|--4------|---------|--7------|--9------|
|--7------|--6------|--5------|--4------|---------|--7------|--9------|
|--7------|--4------|--5------|--2------|---------|--5------|--7------|
|--5------|---------|--3------|---------|---------|---------|---------|
   I say     Plenty of Fish in   Sea        but      All that  See   is

   A
|---------|---------|
|-----5--5|-----5--5|
|-----6--6|-----6--6|
|-----7--7|-----7--7|
|-----7--7|-----7--7|
|--5------|--0------|

   Me


This repeats one more time for the second verse.

Afterwards there's a dialogue between "Me" and Petrov, this is all played repeating over:


   A
|---------|---------|
|-----5--5|-----5--5|
|-----6--6|-----6--6|
|-----7--7|-----7--7|
|-----7--7|-----7--7|
|--5------|--0------|


When the dialogue is over everything is shifted up one fret for the next verse which is
F and D#, the fashion that this is played in is the same as before

   A#
|---------|---------|
|-----6--6|-----6--6|
|-----7--7|-----7--7|
|-----8--8|-----8--8|
|-----8--8|-----8--8|
|--6------|--0------|

   F
|---------|---------|
|----10-10|----10-10|
|----10-10|----10-10|
|----10-10|----10-10|
|--8--8--8|-----8--8|
|---------|--8------|

   D#
|---------|---------|
|-----8--8|-----8--8|
|-----8--8|-----8--8|
|-----8--8|-----8--8|
|--6--6--6|-----6--6|
|---------|--6------|


the next verse is shifted up yet again
For the creepy Oooooo Ooooo part it repeats B and changes to F

   B
|---------|---------|
|-----7--7|-----7--7|
|-----8--8|-----8--8|
|-----9--9|-----9--9|
|-----9--9|-----9--9|
|--7------|--0------|

   F
|---------|---------|
|-----1--1|-----1--1|
|-----2--2|-----2--2|
|-----3--3|-----3--3|
|-----3--3|-----3--3|
|--1------|--0------|

after this verse it slows down and goes back to the original chords:

   A
|---------|---------|---------|---------|---------|---------|
|-----5--5|-----5--5|-----5--5|-----5--5|-----5--5|-----5--5|
|-----6--6|-----6--6|-----6--6|-----6--6|-----6--6|-----6--6|
|-----7--7|-----7--7|-----7--7|-----7--7|-----7--7|-----7--7|
|-----7--7|-----7--7|-----7--7|-----7--7|-----7--7|-----7--7|
|--5------|--0------|--5------|--0------|--5------|--0------|
   When    awOke they  Already   Dead and  All that  Left of
  E                    D         A
|---------|---------|---------|---------|---------|---------|
|-----9--9|-----9--9|-----7--7|-----7--7|-----5--5|-----5--5|
|-----9--9|-----9--9|-----7--7|-----7--7|-----6--6|-----6--6|
|-----9--9|-----9--9|-----7--7|-----7--7|-----7--7|-----7--7|
|--7--7--7|-----7--7|--5--5--5|-----5--5|-----7--7|-----7--7|
|---------|--7------|---------|--5------|--5------|--0------|
   Me was  myHead      No not    Dead      Just a    Head
it then repeats the last line

   E         D         A
|---------|---------|---------|---------|---------|---------|
|--9------|--7------|-----5--5|-----5--5|-----5--5|-----5--5|
|--9------|--7------|-----6--6|-----6--6|-----6--6|-----6--6|
|--9------|--7------|-----7--7|-----7--7|-----7--7|-----7--7|
|--7------|--5------|-----7--7|-----7--7|-----7--7|-----7--7|
|---------|---------|--5------|--0------|--5------|--0------|
   Lost      Happy at  Sea

   E         D         A
|---------|---------|---------|---------|---------|---------|
|--9------|--7------|-----5--5|-----5--5|-----5--5|-----5--5|
|--9------|--7------|-----6--6|-----6--6|-----6--6|-----6--6|
|--9------|--7------|-----7--7|-----7--7|-----7--7|-----7--7|
|--7------|--5------|-----7--7|-----7--7|-----7--7|-----7--7|
|---------|---------|--5------|--0------|--5------|--0------|
   Lost      lonely at  Sea

and as a closer it ends with
"lost but so LONEEEEELLEEEYYY" as an extended D chord strummed really fast "at seaaaaa!"

   E         D                   A                   let ring
|---------|---------|---------|---------|---------|------5--|
|--9------|--7777777|777777777|-----5--5|-----5--5|-----5---|
|--9------|--7777777|777777777|-----6--6|-----6--6|----6----|
|--9------|--7777777|777777777|-----7--7|-----7--7|---7-----|
|--7------|--5555555|555555555|-----7--7|-----7--7|--7------|
|---------|---------|---------|--5------|--0------|-5-------|

 lost but so LOOOONNNEELLLLLYY at Seeeeeaaaaaaaaaaaa
            
Submit corrections

↑ Back to top | Tablatures and chords for acoustic guitar and electric guitar, ukulele, drums are parodies/interpretations of the original songs. You may use it for private study, scholarship, research or language learning purposes only