» » »

Flight Of The Conchords - If You're Into It Tabs

Artists:  A B C D E F G H I J K L M N O P Q R S T U V W X Y Z # 

If You're Into It Tabs

(ver. 1) Click to play this song!
Flight Of The Conchords
 Rating:
4/5 (4 votes)

 If You're Into It lessons Tabs too difficult? Try these video lessons and learn fast
 
                i tabbed this from the one where jemaine plays a xylophone

e|---------------------------------------------------------------------------|
B|-----1---1---1---1------1---1---1---1------1---1---1---1----2--------------|
G|-----0---0---0---0------0---0---0---0------0---0---0---0----2--------------|
D|-----2---2---2---2------2---2---2---2------2---2---2---2----2--------------|
A|---3-------3--------3-0-------0--------0-3-------3---3---3--0--------------|
E|-------3-------3----------0-------0----------3-----------------------------|

"if you want me to..."
e|----------------------------------------------|x4
B|-----1---1---1---1------1---1---1---1---------|
G|-----0---0---0---0------0---0---0---0---------|
D|-----2---2---2---2------2---2---2---2---------|
A|---3-------3--------3-0-------0--------0------|
E|-------3-------3----------0-------0-----------|



"you and him, him and you..."
e|----------------------------------------------------|
B|-----1----1-1---1---1---1-1—-1---1--1-1--1---1--1---|
G|-----0----0-0---0---0---0-0--0---0--0-0--0---0--0---|
D|-----2----2-2---2---2---2-2--2---2--2-2--2---2--2---|
A|-----3----3-3---3---0---0-0--0---3--3-3--3---0--0---|
E|----------------------------------------------------|

Bret:
2,3 "and if you want me to..." x2 
4 "and then maybe later, we'll get hot..."
5"then on our next date"#


Bret singin
e|----------------------------------------------|x4
B|-----1---1---1---1------1---1---1---1---------|
G|-----0---0---0---0------0---0---0---0---------|
D|-----2---2---2---2------2---2---2---2---------|
A|---3-------3--------3-0-------0--------0------|
E|-------3-------3----------0-------0-----------|


Jemaine:
2"how bout him...", 
3"is that what, you're into..."
4"in the buff, doin stuff..."
5"how bout you and two dudes"

jemaine singin
e|----------------------------------------------------|
B|-----1----1-1---1---1---1-1—-1---1--1-1--1---1--1---|
G|-----0----0-0---0---0---0-0--0---0--0-0--0---0--0---|
D|-----2----2-2---2---2---2-2--2---2--2-2--2---2--2---|
A|-----3----3-3---3---0---0-0--0---3--3-3--3---0--0---|
E|----------------------------------------------------|





Outtro

"all the things we could do..." 
e|----------------------------------------------|x6
B|-----1---1---1---1------1---1---1---1---------|
G|-----0---0---0---0------0---0---0---0---------|
D|-----2---2---2---2------2---2---2---2---------|
A|---3-------3--------3-0-------0--------0------|
E|-------3-------3----------0-------0-----------|

jemaine shows some xylophone skill here

Played slowly:
e|----8-------------------------|
B|----10---1-1------------------|
G|----10---0-0------------------|
D|----10---2-2------------------|
A|----8----3-0------------------|
E|---------3--------------------|


:)
            
Submit corrections


        If You're Into It lessons Hard to play? Try these video lessons and learn fast If You're Into It lessons
        
↑ Back to top | Tablatures and chords for acoustic guitar and electric guitar, ukulele, drums are parodies/interpretations of the original songs. You may use it for private study, scholarship, research or language learning purposes only