» » »

Flight Of The Conchords - Business Time Tabs

Artists:  A B C D E F G H I J K L M N O P Q R S T U V W X Y Z # 

Business Time Tabs

(ver. 2) Click to play this song!
Flight Of The Conchords
 Rating:
4.3/5 (19 votes)

 Business Time lessons Tabs too difficult? Try these video lessons and learn fast
 
                [Jemaine Intro]

e|------------------------------------------------|   
B|------------------------------------------------|   
G|------------------------------------------------|   
D|------------------------------------------------|   
A|-----------------------------------0h1h2h3------|    
E|-3-3-x-x-3-3---------3-3-x-x-3-3-----------0----| x2  


[Bret Intro]

e|---------------------------------------------||--------------------------------------------3-----|
B|---------------------------------------------||--------------------------------------------4-----|
G|---------------------------------------------||---------------------------------3-3--------3-----|
D|---------------------------------------------||-------------------------3-3-----3-3--------3-----|
A|---------------------------------------------||---------5-5-------------5-5-----5-5--------------|
E|-3-3-x-x-3-3-x-x-x-x-x-x-3-3-x-x-3-3---------||-3-3-x-x-3-3-x-x-x-x-x-x-3-3-x-x-3-3--x-x-x-------|


[Jemaine Verse]

e|-------------------------------------------|
B|-------------------------------------------|
G|-------------------------------------------|
D|-------------------------------------------|
A|-------------------------------------------|
E|--3-3-x-x-3-3---------3-3-x-x-3-3----------| (Repeats pretty much the entire verse)

Sometimes he will lead into the chorus with this:
e|-------------------------------------------|
B|-------------------------------------------|
G|-------------------------------------------|
D|-------------------------------------------|
A|-----------------------------------0-1-2---|
E|--3-3-x-x-3-3---------3-3-x-x-3-3----------|


[Bret Verse]

e|--3-3-xxxx-3-3-xxxxxxxx-3-3-xxxx-3-3-xxxxxxxx-3-3-xxxx-3-3-xxxxxx-3-xx-3-3-xxxx-3-3-3-3-3----|
B|--3-3-xxxx-3-3-xxxxxxxx-3-3-xxxx-3-3-xxxxxxxx-3-3-xxxx-3-3-xxxxxx-4-xx-3-3-xxxx-3-3-3-4-6----|
G|--3-3-xxxx-3-3-xxxxxxxx-3-3-xxxx-3-3-xxxxxxxx-3-3-xxxx-3-3-xxxxxx-3-xx-3-3-xxxx-3-3-3-3-3----|
D|--3-3-xxxx-3-3-xxxxxxxx-3-3-xxxx-3-3-xxxxxxxx-3-3-xxxx-3-3-xxxxxx-3-xx-3-3-xxxx-3-3-3-3-3----|
A|--5-5-xxxx-5-5-xxxxxxxx-5-5-xxxx-5-5-xxxxxxxx-5-5-xxxx-5-5-xxxxxx---xx-5-5-xxxx-5-5----------|
E|--3-3-xxxx-3-3-xxxxxxxx-3-3-xxxx-3-3-xxxxxxxx-3-3-xxxx-3-3-xxxxxx---xx-3-3-xxxx-3-3----------|

(Bret kinda plays around with this format and may do it in a different order each time. He also throws
the following chord in there sometimes, too.)

e|--3---|
B|--3---|
G|--5---|
D|--3---|
A|--5---|
E|--3---|


[Jemaine Chorus]

(I don't think he played any particular rhythm here. It sounds like he just played the notes
pretty sporadically)

e|---------------------------------------------------------------------------|
B|---------------------------------------------------------------------------|
G|---------------------------------------------------------------------------|
D|---------------------------------------------------------------------------|
A|---3--3--3--3--5--5--5--5--------------------------------------------------|
E|---------------------------3--3--3--3--3--3--3--3--------------------------|

e|---------------------------------------------------------------------------|
B|---------------------------------------------------------------------------|
G|---------------------------------------------------------------------------|
D|---------------------------------------------------------------------------|
A|---3--3--3--3--5--5--5--5--------------------------------------------------|
E|---------------------------3-3-x-x-3-3-0-1-2-3-3-3-3-3-3-3-3-3-------------|


[Bret Chorus]

(Once again, just kinda plays it to the beat with 16ths. No weird rhythm. But here are the chords)

e|---3--3--3--3---5--5--5--5---3--3--3--3--3--3--3--3------------------------|
B|---4--4--4--4---6--6--6--6---3--3--3--3--3--3--3--3------------------------|
G|---5--5--5--5---7--7--7--7---3--3--3--3--3--3--3--3------------------------|
D|---5--5--5--5---7--7--7--7---3--3--3--3--3--3--3--3------------------------|
A|---3--3--3--3---5--5--5--5---5--5--5--5--5--5--5--5------------------------|
E|-----------------------------3--3--3--3--3--3--3--3------------------------|

e|---3--3--3--3---5--5--5--5---3--3--3--3--3--3--3--3---3-3-3-3-3-3-3-3-3----|
B|---4--4--4--4---6--6--6--6---3--3--3--3--3--3--3--3---5-5-5-5-5-5-5-5-5----|
G|---5--5--5--5---7--7--7--7---3--3--3--3--3--3--3--3---3-3-3-3-3-3-3-3-3----|
D|---5--5--5--5---7--7--7--7---3--3--3--3--3--3--3--3---5-5-5-5-5-5-5-5-5----|
A|---3--3--3--3---5--5--5--5---5--5--5--5--5--5--5--5---5-5-5-5-5-5-5-5-5----|
E|-----------------------------3--3--3--3--3--3--3--3---3-3-3-3-3-3-3-3-3----|

e|--------|
B|--------|
G|--------|
D|--------|
A|--------|
E|--10/3--|


[Bret Sexy Dance Part]

e|--3-3-xxxx-3-3-xx-10-10-10-10-xx-3-3-xxxx-3-3-xx-10-10-10-10-xx-----|
B|--3-3-xxxx-3-3-xx-11-11-11-11-xx-3-3-xxxx-3-3-xx-11-11-11-11-xx-----|
G|--3-3-xxxx-3-3-xx-12-12-12-12-xx-3-3-xxxx-3-3-xx-12-12-12-12-xx-----|
D|--3-3-xxxx-3-3-xx-12-12-12-12-xx-3-3-xxxx-3-3-xx-12-12-12-12-xx-----|
A|--5-5-xxxx-5-5-xx-10-10-10-10-xx-5-5-xxxx-5-5-xx-10-10-10-10-xx-----|
E|--3-3-xxxx-3-3-xx-------------xx-3-3-xxxx-3-3-xx-------------xx-----|
            
Submit corrections


        Business Time lessons Hard to play? Try these video lessons and learn fast Business Time lessons
        
↑ Back to top | Tablatures and chords for acoustic guitar and electric guitar, ukulele, drums are parodies/interpretations of the original songs. You may use it for private study, scholarship, research or language learning purposes only