» » »

Five Finger Death Punch - Under And Over It Tabs

Artists:  A B C D E F G H I J K L M N O P Q R S T U V W X Y Z # 

Under And Over It Tabs

(ver. 2) Click to play this song!
Five Finger Death Punch
 Rating:
4/5 (4 votes)

 Under And Over It lessons Tabs too difficult? Try these video lessons and learn fast
 
                                                  Tuning: 6 string BEADF#B

-----------------------------------------------------------------------------------------
|                                    INTRO (00:00-00:25)                                |
-----------------------------------------------------------------------------------------

I. Guitars 1 and 2 (w/ dist)

 B|------------------------------|----------------------------|
F#|------------------------------|----------------------------|
 D|------------------------------|----------------------------| x4
 A|------------------------------|----------------------------|
 E|---------2--2--------------3--|---2------------------------|
 B|-3b--p0--0--0--0-3-5-3-0-0-1--|---0--0--0--0-1-3-0-1-3-1-0-|
            *  *  * * * * * *           *  *  * * * * * * * *

II. Guitars 1 and 2 (w/ dist)

 B|-------------------------|-------------------------|
F#|-------------------------|-------------------------|
 D|-------------------------|-------------------------|
 A|-------------------------|-------------------------|
 E|-2-----2-----2--3--2-----|----2-----2--2--3--2-----|
 B|-0--0--0--0--0--1--0--0--|-0--0--0--0--0--1--0--0--|\
       *     *           *    *     *              *    x2
 B|-------------------------|---------------------|    /
F#|-------------------------|---------------------|   /
 D|-------------------------|---------------------|  /
 A|-------------------------|---------------------| /
 E|-2-----2-----2--3--2--2--|--2--2--2---3--3--2--|/
 B|-0--0--0--0--0--1--0--0--|--0--0--0---1--1--0--|
       *     * 

    Guitar 3 (w/ dist)
   .......................                  ............
 B|-----7------7------|--7---7--7--8--7---|-----7------7---7--|--7--7--7--7--8--8--7--|
F#|-5-------5------5--|------5--5--6--5---|-5-------5------5--|--5--5--5--5--6--6--5--|
 D|-------------------|-------------------|-------------------|-----------------------| x2
 A|-------------------|-------------------|-------------------|-----------------------|
 E|-------------------|-------------------|-------------------|-----------------------|
 B|-------------------|-------------------|-------------------|-----------------------|

    Guitar 4 (w/ dist)

 B|-------------------|-------------------|-------------------|------------------------|
F#|-------------------|-------------------|-------------------|------------------------|
 D|-------------------|-------------------|----------------9--|---9--9--9--9--10-10-9--| x2
 A|-------------------|-------------------|----------------x--|---x--x--x--x--x--x--x--|
 E|-------------------|-------------------|----------------7--|---7--7--7--7--8--8--7--|
 B|-------------------|-------------------|-------------------|------------------------|

-----------------------------------------------------------------------------------------
|                                   VERSE (00:25-00:51)                                 |
-----------------------------------------------------------------------------------------

I. Guitars 1 and 2 (w/ dist)

 B|-------------------------|-------------------------|
F#|-------------------------|-------------------------|
 D|-------------------------|-------------------------|
 A|-------------------------|-------------------------|
 E|-2-----2-----2--3--2-----|----2-----2--2--3--2-----|
 B|-0--0--0--0--0--1--0--0--|-0--0--0--0--0--1--0--0--|\
       *     *           *    *     *              *    x3
 B|-------------------------|---------------------|    /
F#|-------------------------|---------------------|   /
 D|-------------------------|---------------------|  /
 A|-------------------------|---------------------| /
 E|-2-----2-----2--3--2--2--|--2--2--2---3--3--2--|/
 B|-0--0--0--0--0--1--0--0--|--0--0--0---1--1--0--|
       *     * 

   Guitar 3 (w/ dist)

 B|-------------------|-------------------|-------------------|------------------------|
F#|-------------------|-------------------|-------------------|------------------------|
 D|-------------------|-------------------|----------------9--|---9--9--9--9--10-10-9--| x3
 A|-------------------|-------------------|----------------x--|---x--x--x--x--x--x--x--|
 E|-------------------|-------------------|----------------7--|---7--7--7--7--8--8--7--|
 B|-------------------|-------------------|-------------------|------------------------|

II. Guitars 1 and 2 (w/ dist)

 B|--------------------------|-----------------------|
F#|--------------------------|-----------------------|
 D|--------------------------|-----------------------|
 A|--------------------------|-----------------------|
 E|-2-----2-----2--3--2------|----2--2--2--2--3--2---|
 B|-0--0--0--0--0--1--0------|----0--0--0--0--1--0---|
       *     *
 B|-------------------------|------------------------|
F#|-------------------------|------------------------|
 D|----------------------9--|--s11-11s12-12s11-11s9--|
 A|----------------------x--|---x--x--x--x--x--x--x--|
 E|-2-----2-----2--3--2--7--|--s9--9-s10-10s9--9-s7--|
 B|-0--0--0--0--0--1--0-----|------------------------|
       *     *

-----------------------------------------------------------------------------------------
|                                    CHORUS (00:51-01:28)                               |
-----------------------------------------------------------------------------------------

I. Guitars 1 and 2 (w/ dist)

 B|-------------------|----------------------|-------------------|---------------------|
F#|-------------------|----------------------|-------------------|---------------------|
 D|-------------------|----------------------|-------------------|---------------------|
 A|-9---9---9--9--7---|---7--------7---7-----|-2---2---------5---|--5--------5---5-----|
 E|-7---7---7--7--5---|---5--5--5--5---5-p0--|-0---0---0--0--3---|--3--3--3--3---3-p0--|
 B|-------------------|----------------------|-------------------|---------------------|
                             *  *                      *  *            *  *

 B|-------------------|----------------------|-------------------|-----------------------------|
F#|-------------------|----------------------|-------------------|-----------------------------|
 D|-------------------|----------------------|-------------------|-----------------------------|
 A|-9---9---9--9--7---|---7--------7---7-----|-2---2---------5---|-----------------------------|
 E|-7---7---7--7--5---|---5--5--5--5---5-p0--|-0---0---0--0--3---|---0-0-0--0--9-7-0-0-7-5-0-0-|
 B|-------------------|----------------------|-------------------|-----------------------------|
                             *  *                      *  *          * * *  *  * * * * * * * *

 B|-------------------|----------------------|-------------------|---------------------|
F#|-------------------|----------------------|-------------------|---------------------|
 D|-------------------|----------------------|-------------------|---------------------| x2
 A|-9---9---9--9--7---|---7--------7---7-----|-2---2---------5---|--5--------5---5-----|
 E|-7---7---7--7--5---|---5--5--5--5---5-p0--|-0---0---0--0--3---|--3--3--3--3---3-p0--|
 B|-------------------|----------------------|-------------------|---------------------|
                             *  *                      *  *            *  *

II. Guitars 1 and 2 (w/ dist)

 B|-------------------------|-------------------------|
F#|-------------------------|-------------------------|
 D|-------------------------|-------------------------|
 A|-------------------------|-------------------------|
 E|-2-----2-----2--3--2-----|----2-----2--2--3--2-----|
 B|-0--0--0--0--0--1--0--0--|-0--0--0--0--0--1--0--0--|\
       *     *           *    *     *              *    x2
 B|-------------------------|---------------------|    /
F#|-------------------------|---------------------|   /
 D|-------------------------|---------------------|  /
 A|-------------------------|---------------------| /
 E|-2-----2-----2--3--2--2--|--2--2--2---3--3--2--|/
 B|-0--0--0--0--0--1--0--0--|--0--0--0---1--1--0--|
       *     * 

    Guitar 3 (w/ dist)
   .......................                  ............
 B|-----7------7------|--7---7--7--8--7---|-----7------7---7--|--7--7--7--7--8--8--7--|
F#|-5-------5------5--|------5--5--6--5---|-5-------5------5--|--5--5--5--5--6--6--5--|
 D|-------------------|-------------------|-------------------|-----------------------| x2
 A|-------------------|-------------------|-------------------|-----------------------|
 E|-------------------|-------------------|-------------------|-----------------------|
 B|-------------------|-------------------|-------------------|-----------------------|

    Guitar 4 (w/ dist)

 B|-------------------|-------------------|-------------------|------------------------|
F#|-------------------|-------------------|-------------------|------------------------|
 D|-------------------|-------------------|----------------9--|---9--9--9--9--10-10-9--| x2
 A|-------------------|-------------------|----------------x--|---x--x--x--x--x--x--x--|
 E|-------------------|-------------------|----------------7--|---7--7--7--7--8--8--7--|
 B|-------------------|-------------------|-------------------|------------------------|


-----------------------------------------------------------------------------------------
|                                   VERSE 2 (01:28-01:54)                               |
-----------------------------------------------------------------------------------------

I. Guitars 1 and 2 (w/ dist)

 B|-------------------------|-------------------------|
F#|-------------------------|-------------------------|
 D|-------------------------|-------------------------|
 A|-------------------------|-------------------------|
 E|-2-----2-----2--3--2-----|----2-----2--2--3--2-----|
 B|-0--0--0--0--0--1--0--0--|-0--0--0--0--0--1--0--0--|\
       *     *           *    *     *              *    x3
 B|-------------------------|---------------------|    /
F#|-------------------------|---------------------|   /
 D|-------------------------|---------------------|  /
 A|-------------------------|---------------------| /
 E|-2-----2-----2--3--2--2--|--2--2--2---3--3--2--|/
 B|-0--0--0--0--0--1--0--0--|--0--0--0---1--1--0--|
       *     * 

   Guitar 3 (w/ dist)

 B|-------------------|-------------------|-------------------|------------------------|
F#|-------------------|-------------------|-------------------|------------------------|
 D|-------------------|-------------------|----------------9--|---9--9--9--9--10-10-9--| x3
 A|-------------------|-------------------|----------------x--|---x--x--x--x--x--x--x--|
 E|-------------------|-------------------|----------------7--|---7--7--7--7--8--8--7--|
 B|-------------------|-------------------|-------------------|------------------------|

II. Guitars 1 and 2 (w/ dist)

 B|--------------------------|-----------------------|
F#|--------------------------|-----------------------|
 D|--------------------------|-----------------------|
 A|--------------------------|-----------------------|
 E|-2-----2-----2--3--2------|----2--2--2--2--3--2---|
 B|-0--0--0--0--0--1--0------|----0--0--0--0--1--0---|
       *     *
 B|-------------------------|------------------------|
F#|-------------------------|------------------------|
 D|-------------------------|------------------------|
 A|-------------------------|------------------------|
 E|-2-----2-----2--3--2--2--|------------------------|
 B|-0--0--0--0--0--1--0--0--|-------------------7s12-|
       *     *

    Guitar 3 (w/ dist)

 B|------|------|------7--------7-------7---|------|
F#|------|------|-5---------5-------5---5---|------|
 D|------|------|---------------------------|------|
 A|------|------|---------------------------|------|
 E|------|------|---------------------------|------|
 B|------|------|---------------------------|------|
                                     
-----------------------------------------------------------------------------------------
|                                   CHORUS 2 (01:54-02:19)                              |
-----------------------------------------------------------------------------------------

 Guitars 1 and 2 (w/ dist)

 B|-------------------|----------------------|-------------------|---------------------|
F#|-------------------|----------------------|-------------------|---------------------|
 D|-------------------|----------------------|-------------------|---------------------|
 A|-9---9---9--9--7---|---7--------7---7-----|-2---2---------5---|--5--------5---5-----|
 E|-7---7---7--7--5---|---5--5--5--5---5-p0--|-0---0---0--0--3---|--3--3--3--3---3-p0--|
 B|-------------------|----------------------|-------------------|---------------------|
                             *  *                      *  *            *  *

 B|-------------------|----------------------|-------------------|-----------------------------|
F#|-------------------|----------------------|-------------------|-----------------------------|
 D|-------------------|----------------------|-------------------|-----------------------------|
 A|-9---9---9--9--7---|---7--------7---7-----|-2---2---------5---|-----------------------------|
 E|-7---7---7--7--5---|---5--5--5--5---5-p0--|-0---0---0--0--3---|---0-0-0--0--9-7-0-0-7-5-0-0-|
 B|-------------------|----------------------|-------------------|-----------------------------|
                             *  *                      *  *          * * *  *  * * * * * * * *

 B|-------------------|----------------------|-------------------|---------------------|
F#|-------------------|----------------------|-------------------|---------------------|
 D|-------------------|----------------------|-------------------|---------------------| x2
 A|-9---9---9--9--7---|---7--------7---7-----|-2---2---------5---|--5--------5---5-----|
 E|-7---7---7--7--5---|---5--5--5--5---5-p0--|-0---0---0--0--3---|--3--3--3--3---3-p0--|
 B|-------------------|----------------------|-------------------|---------------------|
                             *  *                      *  *            *  *

-----------------------------------------------------------------------------------------
|                                    BRIDGE (02:19-02:31)                               |
-----------------------------------------------------------------------------------------

Guitars 1 and 2 (w/ dist)

 B|-----------------------|    |-----------------------------|
F#|-----------------------|    |-----------------------------|
 D|-----------------------|    |-----------------------------|  
 A|-----------------------| x3 |-----------------------------|
 E|-2---------3---2-------|    |-5--5----------3--3----------|
 B|-0--0-0-0--1---0-------|    |-3--3--3-3-0-0-1--1--1-1-1-1-|
       * * *                        *  * * * *       * * * *
 B|-----------------------|    |-----------------------------|
F#|-----------------------|    |-----------------------------|
 D|-----------------------|    |-----------------------------|  
 A|-----------------------| x3 |-----------------------------|
 E|-2---------3---2-------|    |-5--5----------3--3----------|
 B|-0--0-0-0--1---0-------|    |-3--3--3-3-0-0-1--1--1-1-1-1-|
       * * *                        *  * * * *       * * * *

-----------------------------------------------------------------------------------------
|                                     SOLO (02:31-02:50)                                |
-----------------------------------------------------------------------------------------

Guitars 1 and 2 (w/ dist) - Rhythm for SOLO

 B|-------------------------|-------------------------|
F#|-------------------------|-------------------------|
 D|-------------------------|-------------------------|
 A|-------------------------|-------------------------|
 E|-2-----2-----2--3--2-----|----2-----2--2--3--2-----|
 B|-0--0--0--0--0--1--0--0--|-0--0--0--0--0--1--0--0--|\
       *     *           *    *     *              *    x2
 B|-------------------------|---------------------|    /
F#|-------------------------|---------------------|   /
 D|-------------------------|---------------------|  /
 A|-------------------------|---------------------| /
 E|-2-----2-----2--3--2--2--|--2--2--2---3--3--2--|/
 B|-0--0--0--0--0--1--0--0--|--0--0--0---1--1--0--|
       *     * 
 B|--------------------------|-----------------------|
F#|--------------------------|-----------------------|
 D|--------------------------|-----------------------|
 A|--------------------------|-----------------------|
 E|-2-----2-----2--3--2------|----2--2--2--2--3--2---|
 B|-0--0--0--0--0--1--0------|----0--0--0--0--1--0---|
       *     *
 B|-------------------------|------------------------|
F#|-------------------------|------------------------|
 D|----------------------9--|--s11-11s12-12s11-11s9--|
 A|----------------------x--|---x--x--x--x--x--x--x--|
 E|-2-----2-----2--3--2--7--|--s9--9-s10-10s9--9-s7--|
 B|-0--0--0--0--0--1--0-----|------------------------|
       *     *

   Guitar 3 (w/ dist) - Rhythm for SOLO

 B|-------------------|-------------------|-------------------|------------------------|
F#|-------------------|-------------------|-------------------|------------------------|
 D|-------------------|-------------------|----------------9--|---9--9--9--9--10-10-9--| x2
 A|-------------------|-------------------|----------------x--|---x--x--x--x--x--x--x--|
 E|-------------------|-------------------|----------------7--|---7--7--7--7--8--8--7--|
 B|-------------------|-------------------|-------------------|------------------------|

   Guitar 4 (w/ dist and delay) - SOLO
                                .....
 B|------------------------|----0-----0--0--0--0--0--|-0--0--0--0--0--0--0-----|
F#|---------------------17-|----17s12-12-13-13-10-10-|-12-12-8--8--10-10-8-s12-|
 D|------------------------|-------------------------|-------------------------|
 A|------------------------|-0-----------------------|-------------------------|
 E|-------xxxxxxxxxxx------|-------------------------|-------------------------|
 B|-------xxxxxxxxxxx------|-------------------------|-------------------------|

 B|-12-------7--------7------|-5------------------0--|
F#|-12----------8------------|----7-----7------7--17-|
 D|----4-s9--------9-----s7--|-------7------7--------|
 A|--------------------------|-----------------------|
 E|--------------------------|-----------------------|
 B|--------------------------|-----------------------|
                               *  *
       ..........     ..................
 B|----0--0--0--0--0--0--0--|-0--0--0--0--0--0--0--0--|---------7--------7-------|
F#|----17s12-12s13-13-10-10-|s12-12s8--8-s10-10-8s12--|s-----------8-------------|
 D|-------------------------|-------------------------|---4-s9--------9-----s7---|
 A|-0-----------------------|-------------------------|--------------------------|
 E|-------------------------|-------------------------|--------------------------|
 B|-------------------------|-------------------------|--------------------------|

 B|-5----------14-----------|-9--------9--------9-----|----9--------------------|
F#|----7-----------15----15-|----10-------10-------10-|-------10----------10----|
 D|--------s14--------14----|-------11-------11-------|-11-------------11----12-|
 A|-------------------------|-------------------------|----------11-12----------|
 E|-------------------------|-------------------------|-------------------------|
 B|-------------------------|-------------------------|-------------------------|

 B|----14------------14-17-21b|~~~~~~~~|
F#|-------14-----s15----------|--------|
 D|-14-------14---------------|--------|
 A|---------------------------|--------|
 E|---------------------------|--------|
 B|---------------------------|--------|

   Guitar 5 (w/ dist and delay) - Harmony for SOLO (only last 4 bars)

 B|-------------------------|-------------------------|----15----------15-19-22b|~~~~~~~~|
F#|-15-------15-------15----|----15-------------12----|-------15----17----------|--------|
 D|----14-12----14-12----14-|-12----14-------12----14-|-16-------16-------------|--------|
 A|-------------------------|----------12-14----------|-------------------------|--------|
 E|-------------------------|-------------------------|-------------------------|--------|
 B|-------------------------|-------------------------|-------------------------|--------|

-----------------------------------------------------------------------------------------
|                                   CHORUS 3 (02:50-03:22)                              |
-----------------------------------------------------------------------------------------

 Guitars 1 and 2 (w/ dist)

 B|-------------------|----------------------|-------------------|---------------------|
F#|-------------------|----------------------|-------------------|---------------------|
 D|-------------------|----------------------|-------------------|---------------------|
 A|-9---9---9--9--7---|---7--------7---7-----|-2---2---------5---|--5--------5---5-----|
 E|-7---7---7--7--5---|---5--5--5--5---5-p0--|-0---0---0--0--3---|--3--3--3--3---3-p0--|
 B|-------------------|----------------------|-------------------|---------------------|
                             *  *                      *  *            *  *

 B|-------------------|----------------------|-------------------|-----------------------------|
F#|-------------------|----------------------|-------------------|-----------------------------|
 D|-------------------|----------------------|-------------------|-----------------------------|
 A|-9---9---9--9--7---|---7--------7---7-----|-2---2---------5---|-----------------------------|
 E|-7---7---7--7--5---|---5--5--5--5---5-p0--|-0---0---0--0--3---|---0-0-0--0--9-7-0-0-7-5-0-0-|
 B|-------------------|----------------------|-------------------|-----------------------------|
                             *  *                      *  *          * * *  *  * * * * * * * *

 B|-------------------|----------------------|-------------------|---------------------|
F#|-------------------|----------------------|-------------------|---------------------|
 D|-------------------|----------------------|-------------------|---------------------| x3
 A|-9---9---9--9--7---|---7--------7---7-----|-2---2---------5---|--5--------5---5-----|
 E|-7---7---7--7--5---|---5--5--5--5---5-p0--|-0---0---0--0--3---|--3--3--3--3---3-p0--|
 B|-------------------|----------------------|-------------------|---------------------|
                             *  *                      *  *            *  *

-----------------------------------------------------------------------------------------
|                                     OUTRO (03:22-03:38)                               |
-----------------------------------------------------------------------------------------

Guitars 1 and 2 (w/ dist)

 B|-----------------------|    |-----------------------------|
F#|-----------------------|    |-----------------------------|
 D|-----------------------|    |-----------------------------|  
 A|-----------------------| x3 |-----------------------------|
 E|-2---------3---2-------|    |-5--5----------3--3----------|
 B|-0--0-0-0--1---0-------|    |-3--3--3-3-0-0-1--1--1-1-1-1-|
       * * *                        *  * * * *       * * * *
 B|-----------------------|    |---------------------------|
F#|-----------------------|    |---------------------------|
 D|-----------------------|    |---------------------------|  
 A|-----------------------| x3 |---------------------------|
 E|-2---------3---2-------|    |-5--5----------3---3---3---|
 B|-0--0-0-0--1---0-------|    |-3--3--3-3-0-0-1---1---1---|
       * * *                        *  * * * * *   *   *                 
Submit corrections


        Under And Over It lessons Hard to play? Try these video lessons and learn fast Under And Over It lessons
        
↑ Back to top | Tablatures and chords for acoustic guitar and electric guitar, ukulele, drums are parodies/interpretations of the original songs. You may use it for private study, scholarship, research or language learning purposes only