» » »

Five Finger Death Punch - Under And Over It Tabs

Artists:  A B C D E F G H I J K L M N O P Q R S T U V W X Y Z # 

Under And Over It Tabs

(ver. 3) Click to play this song!
Five Finger Death Punch
 Rating:
4.2/5 (30 votes)

 Under And Over It lessons Tabs too difficult? Try these video lessons and learn fast
 
                [Solo]
B |--------------------------------|--------------------------------|
F#|-15--17-------------------------|-----------------------------17-|
D |---------16--16--17--17--14--14-|-16--16----------14--14---------|
A |--------------------------------|---------17--17----------16-----|
E |--------------------------------|--------------------------------|
B |--------------------------------|--------------------------------|

B |------------------|--------------------------|
F#|------------------|-----------------------17-|
D |------16----------|-14-----------------------|
A |-14-------17---14-|-----16------16-----------|
E |------------------|---------17-------17------|
B |------------------|--------------------------|

B |--------------------------------|--------------------------------|
F#|-15--17-------------------------|-----------------------------17-|
D |---------16--16--17--17--14--14-|-16--16----------14--14---------|
A |--------------------------------|---------17--17----------16-----|
E |--------------------------------|--------------------------------|
B |--------------------------------|--------------------------------|

B |------------------|--------------------------|
F#|------------------|-------------19-----------|
D |------16----------|-14---------------19---19-|
A |-14-------17---14-|-----16-------------------|
E |------------------|---------17---------------|
B |------------------|--------------------------|

B |--------------------------------|--------------------------------|
F#|--------------------------------|--------------------------------|
D |-19----------19----------19-----|-----19-------------------------|
A |-----21--17------21--17------21-|-17------21------17--19--21--19-|
E |--------------------------------|-------------19-----------------|
B |--------------------------------|--------------------------------|

B |-------------------------19/22^--Let this one ring--|
F#|-----20--------------20-----------------------------|
D |---------19------21---------------------------------|
A |-21----------21-------------------------------------|
E |----------------------------------------------------|
B |----------------------------------------------------|            
Submit corrections


        Under And Over It lessons Hard to play? Try these video lessons and learn fast Under And Over It lessons
        
↑ Back to top | Tablatures and chords for acoustic guitar and electric guitar, ukulele, drums are parodies/interpretations of the original songs. You may use it for private study, scholarship, research or language learning purposes only