» » »

Five Finger Death Punch - The Tragic Truth Tabs

Artists:  A B C D E F G H I J K L M N O P Q R S T U V W X Y Z # 

The Tragic Truth Tabs

(ver. 2) Click to play this song!
Five Finger Death Punch
 Rating:
4.3/5 (20 votes)

 The Tragic Truth lessons Tabs too difficult? Try these video lessons and learn fast
 
                ---------------------------------------------------------------------------------------------------------------
Rhythm Intro: e|--------------------------|
              B|--------------------------|
              G|---9--9--------5--5--7--7-| X4 (After two times, go to lead intro)
              D|--9--9---5--5-5--5--7--7--|
              A|-7--7---5--5-3--3--5--5---|
              E|-------3--3---------------|

Lead Intro: e|----------|
            B|----------|
            G|-------7~-|
            D|-4~-5~----|
            A|----------|
            E|----------|

            e|------------------|
            B|------------------|
            G|-------7~---------|
            D|-4~-5~----9-9-9p7-|
            A|------------------|
            E|------------------|

Verse: e|---------------------------|
       B|---------------------------|
       G|-----9------------5-----7--| X4
       D|--9-9-9----5---5-5-5-7-7-7-|
       A|-7-7----5-5-5-3-3---5-5----|
       E|-------3-3-----------------|

Rhythm Pre-Chorus: e|--------------------------------------|
                   B|--------------------------------------|
                   G|-99-x-99-x-----------55-x-55-x-7-7777-| X4
                   D|-99-x-99-x-55-x-55-x-55-x-55-x-7-7777-|
                   A|-77-x-77-x-55-x-55-x-33-x-33-x-5-5555-|
                   E|-----------33-x-33-x------------------|

Lead Pre-Chorus: e|--------------------------|
                 B|--------------------------|
                 G|-4--4--7--7---------------| X3
                 D|--55-55-55-555--5--7--7---|
                 A|--------------33-33-55-55-|
                 E|--------------------------|

                 e|---------------------------------7~-|
                 B|--------------------------4h5h7p4---|
                 G|-4--4--7--7-----4h5h7p44h7----------|
                 D|--55-55-55-555h7--------------------|
                 A|------------------------------------|
                 E|------------------------------------|

Chorus: e|-----------------------------------------|
        B|-----------------------------------------|
        G|-44-x-44-x-77-x-77-x---------------------| X3
        D|-44-x-44-x-77-x-77-x-77-x-77-x-22-x-22-x-|
        A|-22-x-22-x-55-x-55-x-77-x-77-x-22-x-22-x-|
        E|---------------------55-x-55-x-00-x-00-x-|

        e|-------------------------|
        B|-------------------------|
        G|-------------------------|
        D|-5-5-5-5-5-5-7-7-7-7-7-7-|
        A|-5-5-5-5-5-5-7-7-7-7-7-7-|
        E|-3-3-3-3-3-3-5-5-5-5-5-5-|

Rhythm Pre-Verse: e|--------------------------|
                  B|--------------------------|
                  G|---9--9--------5--5--7--7-| X2
                  D|--9--9---5--5-5--5--7--7--|
                  A|-7--7---5--5-3--3--5--5---|
                  E|-------3--3---------------|

Lead Pre-Verse: e|----------|
                B|----------|
                G|-------7~-|
                D|-4~-5~----|
                A|----------|
                E|----------|

               e|------------------|
               B|------------------|
               G|-------7~---------|
               D|-4~-5~----9-9-9p7-|
               A|------------------|
               E|------------------|

Verse: e|---------------------------|
       B|---------------------------|
       G|-----9------------5-----7--| X4
       D|--9-9-9----5---5-5-5-7-7-7-|
       A|-7-7----5-5-5-3-3---5-5----|
       E|-------3-3-----------------|

Rhythm Pre-Chorus: e|--------------------------------------|
                   B|--------------------------------------|
                   G|-99-x-99-x-----------55-x-55-x-7-7777-| X4
                   D|-99-x-99-x-55-x-55-x-55-x-55-x-7-7777-|
                   A|-77-x-77-x-55-x-55-x-33-x-33-x-5-5555-|
                   E|-----------33-x-33-x------------------|

Lead Pre-Chorus: e|--------------------------|
                 B|--------------------------|
                 G|-4--4--7--7---------------| X3
                 D|--55-55-55-555--5--7--7---|
                 A|--------------33-33-55-55-|
                 E|--------------------------|

                 e|---------------------------------7~-|
                 B|--------------------------4h5h7p4---|
                 G|-4--4--7--7-----4h5h7p44h7----------|
                 D|--55-55-55-555h7--------------------|
                 A|------------------------------------|
                 E|------------------------------------|

Chorus: e|-----------------------------------------|
        B|-----------------------------------------|
        G|-44-x-44-x-77-x-77-x---------------------| X3
        D|-44-x-44-x-77-x-77-x-77-x-77-x-22-x-22-x-|
        A|-22-x-22-x-55-x-55-x-77-x-77-x-22-x-22-x-|
        E|---------------------55-x-55-x-00-x-00-x-|

        e|-------------------------|
        B|-------------------------|
        G|-------------------------|
        D|-5-5-5-5-5-5-7-7-7-7-7-7-|
        A|-5-5-5-5-5-5-7-7-7-7-7-7-|
        E|-3-3-3-3-3-3-5-5-5-5-5-5-|

Solo: e|-10~-9p7h9~-705030-10~-977977-------------------|
      B|-----------------------------977977755755533322-|
      G|------------------------------------------------|
      D|------------------------------------------------|
      A|------------------------------------------------|
      E|------------------------------------------------|

      e|------------------------5~-7~-03050-|
      B|-7~-77788855~-305070-7~-------------|
      G|------------------------------------|
      D|------------------------------------|
      A|------------------------------------|
      E|------------------------------------|

      e|-7~-7h9p55-33-22-00-7~-7h9p55-33-22-00-----------------------------|
      B|---------------------------------------3~-3h5p2~-0h2-3~-3h5p2~-0h2-|
      G|-------------------------------------------------------------------|
      D|-------------------------------------------------------------------|
      A|-------------------------------------------------------------------|
      E|-------------------------------------------------------------------|

      e|--------------------4--------------------7~-|
      B|-3h5h7p33333h5p3h7p3-3-3h5h7p5p3h5h7-5-3----|
      G|--------------------------------------------|
      D|--------------------------------------------|
      A|--------------------------------------------|
      E|--------------------------------------------|

Chorus: e|-----------------------------------------|
        B|-----------------------------------------|
        G|-44-x-44-x-77-x-77-x---------------------| X3
        D|-44-x-44-x-77-x-77-x-77-x-77-x-22-x-22-x-|
        A|-22-x-22-x-55-x-55-x-77-x-77-x-22-x-22-x-|
        E|---------------------55-x-55-x-00-x-00-x-|

        e|-------------------------|
        B|-------------------------|
        G|-------------------------|
        D|-5-5-5-5-5-5-7-7-7-7-7-7-|
        A|-5-5-5-5-5-5-7-7-7-7-7-7-|
        E|-3-3-3-3-3-3-5-5-5-5-5-5-|

        e|-----------------------------------------|
        B|-----------------------------------------|
        G|-44-x-44-x-77-x-77-x---------------------| X3
        D|-44-x-44-x-77-x-77-x-77-x-77-x-22-x-22-x-|
        A|-22-x-22-x-55-x-55-x-77-x-77-x-22-x-22-x-|
        E|---------------------55-x-55-x-00-x-00-x-|

        e|-------------------------|
        B|-------------------------|
        G|-------------------------|
        D|-5-5-5-5-5-5-7-7-7-7-7-7-|
        A|-5-5-5-5-5-5-7-7-7-7-7-7-|
        E|-3-3-3-3-3-3-5-5-5-5-5-5-|

Outro: e|-------------------------|
       B|-------------------------|
       G|-4-4-4-4-4-4-7-7-7-7-7-7-|
       D|-4-4-4-4-4-4-7-7-7-7-7-7-|
       A|-2-2-2-2-2-2-5-5-5-5-5-5-|
       E|-------------------------|

       e|----------------------------|
       B|----------------------------|
       G|-------------------------4~-|
       D|-5-5-5-5-5-5-7-7-7-7-7-7-4~-|
       A|-5-5-5-5-5-5-7-7-7-7-7-7-2~-|
       E|-3-3-3-3-3-3-5-5-5-5-5-5----|

---------------------------------------------------------------------------------------------------------------
Lyrics: Verse: I'm drowning in the bottom of a bottle

               Running from a man I swore I'd never be

               No one ever has to face tomorrow

               But I'm the one who has to face me

        Pre-Chorus: It's the demons I've created for myself

                    The tragic truth

                    It's hard for me to understand myself

                    So it has to be hard as hell for you (For you!)

        Chorus: Are we born to be broken sinners and thieves?

                Someone tell the heavens that I'm ready to escape

                This is not what I wanted and not what I need

                Take it all. Tear it all. Rip it all away!

        Verse: I can't say the Devil made me do it

               I chose to be the one I am, the way I am today

               I wish there was but there's no way around it

               In the end I made the choice and will not die ashamed

        Pre-Chorus: It's the voices screaming in my head

                    The tragic truth

                    It's hard for me to understand myself

                    So it has to be hard as hell for you (You!)

        Solo: Take it all. Tear it all. Take it all. Tear it all AWAY!

        Chorus: Are we born to be broken sinners and thieves?

                Someone tell the heavens that I'm ready to escape

                This is not what I wanted and not what I need

                Take it all. Tear it all. Rip it all away!     

                Are we born to be broken sinners and thieves?

                Someone tell the heavens that I'm ready to escape

                This is not what I wanted and not what I need

                Take it all. Tear it all. Rip it all away!

        Outro: Take it all. Tear it all. Rip it all away!

               Someone tell the heavens to take it all. Tear it all away!            
Submit corrections


        The Tragic Truth lessons Hard to play? Try these video lessons and learn fast The Tragic Truth lessons
        
↑ Back to top | Tablatures and chords for acoustic guitar and electric guitar, ukulele, drums are parodies/interpretations of the original songs. You may use it for private study, scholarship, research or language learning purposes only