» » »

Five Finger Death Punch - Bleeding Bass

Artists:  A B C D E F G H I J K L M N O P Q R S T U V W X Y Z # 

Bleeding Bass

(ver. 3) Click to play this song!
Five Finger Death Punch
 Rating:
3.4/5 (5 votes)


 Bleeding lessons Tabs too difficult? Try these video lessons and learn fast
 
                The Bleeding
Five Finger Death Punch
The Way of The Fist


Ok so this is the simplest tab i've ever seen... have fun with it
Play each part until you get to the next time
But if you've ever heard of the song you should know what to play when

Drop C
CGCF

(00:12)
F|----------------------------------------------|
C|----------------------------------------------|
G|----------------------------------------------|
C|-00000000--00000000-88888888-1010101010101010-|


(00:37)
Same notes, just play with rhythm guitar)
F|-------------------------------------------------------|
C|-------------------------------------------------------|
G|-------------------------------------------------------|
C|-0--0-0--0-0--0-0--0-0-00----0--0-0--0-0--0-0--0-0-00--|

F|-------------------------------------------------------------------|
C|-------------------------------------------------------------------|
G|-------------------------------------------------------------------|
C|--8--8-8--8-8--8-8--8-8-88----10--10-10--10-10--10-10--10-10-1010--|

(00:49)
F|----------------------------------------------|
C|----------------------------------------------|
G|----------------------------------------------|
C|-00000000--77777777--88888888--10101010101010-|


(01:12)
F|---------------------------|
C|---------------------------|
G|---------------------------|
C|-0-0--0-0-0--0-0-0-333-555-|


(01:25)
F|----------------------------------------------|
C|----------------------------------------------|
G|----------------------------------------------|
C|-00000000--00000000-88888888-1010101010101010-|



(01:49)
F|-------------------------------------------------------|
C|-------------------------------------------------------|
G|-------------------------------------------------------|
C|-0--0-0--0-0--0-0--0-0-00----0--0-0--0-0--0-0--0-0-00--|

F|-------------------------------------------------------------------|
C|-------------------------------------------------------------------|
G|-------------------------------------------------------------------|
C|--8--8-8--8-8--8-8--8-8-88----10--10-10--10-10--10-10--10-10-1010--|

(02:13)
F|---------------------------|
C|---------------------------|
G|---------------------------|
C|-0-0--0-0-0--0-0-0-333-555-|



(02:25)
F|----------------------------------------------|
C|----------------------------------------------|
G|----------------------------------------------|
C|-00000000--00000000-88888888-1010101010101010-|


(02:48)
F|-------------------------------------------------------|
C|-------------------------------------------------------|
G|-------------------------------------------------------|
C|-0--0-0--0-0--0-0--0-0-00----0--0-0--0-0--0-0--0-0-00--|

F|-------------------------------------------------------------------|
C|-------------------------------------------------------------------|
G|-------------------------------------------------------------------|
C|--8--8-8--8-8--8-8--8-8-88----10--10-10--10-10--10-10--10-10-1010--|

(03:12)
F|---------------------------|
C|---------------------------|
G|---------------------------|
C|-0-0--0-0-0--0-0-0-333-555-|

(03:25)
F|----------------------------------------------|
C|----------------------------------------------|
G|----------------------------------------------|
C|-00000000--77777777--88888888--10101010101010-|

(03:48)
F|---------------------------|
C|---------------------------|
G|---------------------------|
C|-0-0--0-0-0--0-0-0-333-555-|

End bass at (04:13) for outro
            
Submit corrections



        Bleeding lessons Hard to play? Try these video lessons and learn fast Bleeding lessons
        
↑ Back to top | Tablatures and chords for acoustic guitar and electric guitar, ukulele, drums are parodies/interpretations of the original songs. You may use it for private study, scholarship, research or language learning purposes only