» » »

Five Finger Death Punch - Far From Home Tabs

Artists:  A B C D E F G H I J K L M N O P Q R S T U V W X Y Z # 

Far From Home Tabs

(ver. 2) Click to play this song!
Five Finger Death Punch
 Rating:
3.4/5 (22 votes)

 Far From Home lessons Tabs too difficult? Try these video lessons and learn fast
 
                Solo:

E|----------------------------------------------------------------5-8-5-------8------10/12---12h|
B|----------------8------------------------------------------------5-5-5-8/10---10-8------------|
G|------5-------5---7-5---5/7-----7b--7-5--4v--------------5---7b-------------------------------|
D|-5/7-----5/7----------7-----7-5-------------7-5---5/7------7----------------------------------|
A|------------------------------------------------7---------------------------------------------|
D|----------------------------------------------------------------------------------------------|

E|13--12--10----10--12-12---12h13--12-10----10--12--15----------13-15-17--15/17---------------5-8-5----|
B|------------12---------------------------12------------13-15-17--------------------------------5-5-5-|
G|------------------------------------------------------------------------------------5---7b-----------|
D|--------------------------------------------------------------------------------5/7----7-------------|
A|-----------------------------------------------------------------------------------------------------|
D|-----------------------------------------------------------------------------------------------------|

E|------8------10/12-12-13-12-10---10--12--13--15--15b-|
B|-8/10---10-8-------------------12--------------------|
G|-----------------------------------------------------|
D|-----------------------------------------------------|
A|-----------------------------------------------------|
D|-----------------------------------------------------|
            
Submit corrections


        Far From Home lessons Hard to play? Try these video lessons and learn fast Far From Home lessons
        
↑ Back to top | Tablatures and chords for acoustic guitar and electric guitar, ukulele, drums are parodies/interpretations of the original songs. You may use it for private study, scholarship, research or language learning purposes only