» » »

Five Finger Death Punch - Far From Home Tabs

Artists:  A B C D E F G H I J K L M N O P Q R S T U V W X Y Z # 

Far From Home Tabs

(ver. 3) Click to play this song!
Five Finger Death Punch
 Rating:
4.3/5 (28 votes)

 Far From Home lessons Tabs too difficult? Try these video lessons and learn fast
 
                [Solo]
E|--------------------------------------|
B|------------------------10------------|
G|------------7--------7------9p7-----9-|
D|-x--x--7/9------7/9--------------9----|
A|--------------------------------------|
E|--------------------------------------|

E|---------------------------------------------------------------------|
B|---------------------------------------------------------------------|
G|-9---------9^--9^--9^--7----6^-(6)--------------------------7-----9^-|
D|----7/9p7---------------------------9---7--4--9-----(9)--9-----9-----|
A|---------------------------------------------------------------------|
E|---------------------------------------------------------------------|
PM                                        .  .                   .

E|-7-----10-----7------10----------14-------15------14^-|
B|----7------7-----12------12--10-------12------12------|
G|------------------------------------------------------|
D|------------------------------------------------------|
A|------------------------------------------------------|
E|------------------------------------------------------|

E|-14^-(14)p-12------12-h14---14------15-|
B|---------------15----------------------|
G|---------------------------------------|
D|---------------------------------------|
A|---------------------------------------|
E|---------------------------------------|

E|-14^-(14)p-12------12-h14---17-------------15-17-19-|
B|---------------15-----------------15-17-19----------|
G|----------------------------------------------------|
D|----------------------------------------------------|
A|----------------------------------------------------|
E|----------------------------------------------------|

E|-19---(19)----------------------------------7-|
B|-----------------------------------------7----|
G|-----------------7-----9^--(9)^-(9)-7/9-------|
D|------------7/9-----9-------------------------|
A|----------------------------------------------|
E|----------------------------------------------|

E|---------10------14---14--h15p14p12----12-14-15-17-19-17^-|
B|-7--12-------10---------------------15--------------------|
G|----------------------------------------------------------|
D|----------------------------------------------------------|
A|----------------------------------------------------------|
E|----------------------------------------------------------|            
Submit corrections


        Far From Home lessons Hard to play? Try these video lessons and learn fast Far From Home lessons
        
↑ Back to top | Tablatures and chords for acoustic guitar and electric guitar, ukulele, drums are parodies/interpretations of the original songs. You may use it for private study, scholarship, research or language learning purposes only