Home » F » Fito Y Fitipaldis »

Fito Y Fitipaldis - Soldadito Marinero Tabs

Artists:  A B C D E F G H I J K L M N O P Q R S T U V W X Y Z # 

Soldadito Marinero Tabs

(ver. 2) Click to play this song!
Fito Y Fitipaldis
            G      D      Bm         A             G       D             Bm A           D

------------3------2-----------------0--------------------------------------------------2--|
------------3------3-----------------2---------------3--------3-------------------------3--|
------------0------2-----------------2-------------0---0--------2-2---------------------2--|
-2h4-2-0----0----0----0h4-7-0h4-4h7--2---------------------0----------0h4-7-2-2/4\2p0-0----|
------------2--0---------------------0---2h4-2-0-------------------------------------------|
----------3-3-------------------------------------3----------------------------------------|

A                    G                       D
El camina despacito que las prisas no son buenas

E-------------0---|
B-------3-------3-|
G-----2---2-------|
D-(0)-------0-----|
A-----------------|
E-----------------|

Bm                     D                  A
En su brazo dobladita con cuidado la chaqueta

E-----------------|
B-------0-2h3-2-0-|
G-----2-----------|
D-2h4---2---------|
A-----------------|
E-----------------|

G                                             D
Luego pasa por las calles donde los chavales juegan

E-----------0---(0)-----|
B---3---------3-----(3)-|
G-----2-2-2-------------|
D-0---------------------|
A-----------------------|
E-----------------------|

Bm                        A                 D
El tambien quiso ser nino pero le pillo la guerra

E-0--0-2------------|
B-3--3-3------------|
G-2--2-2------------|
D----------2h4-2-0--|
A-------------------|
E-------------------|

Chorus

G                                     D-D9
Soldadito marinero conociste a una sirena
Bm                                                A
De esas que dicen 'te quiero' si ven la cartera llena

E---------------|
B---2-----------|
G-2---2---------|
D-------2h4-2-0-|
A---------------|
E---------------|

G                                       D
Escogiste a la mas guapa y a la menos buena

E--------0-------|
B-3--------3-----|
G---2------------|
D-----0----------|
A----------------|
E----------------|

Bm                       A                   D
Sin saber como ha venido te ha cogido la tormenta

Interlude: G D Bm-A-D

                G                 D                   Bm     A    D
E----------------3------------------------------------2p0----0----2----|
B------------------3----------------------------------3------2----3----|
G--------------0-----0--------------------------------4------2----2----|
D---2h4-2-0---------------7h9-7----7/\/\/\--2h4-2-0-4------2----0------|
A-------------------------------9--------------------------------------|
E-----------3----------------------------------------------------------|


A                            G               D
El queria cruzar los mares y olvidar a su sirena

E-------0----|
B-3-------3--|
G---2--------|
D-----0------|
A------------|
E------------|

Bm                         D                  A
La verdad no fue dificil cuando conocio a Mariela

E---------------------|
B---------2---2h3-2-0-|
G---------------------|
D--2h4-2----2---------|
A---------------------|
E---------------------|

G                                                  D
Que tenia los ojos verdes y un negocio entre las piernas

E---------------|
B----3----------|
G------2--------|
D--0------0h4---|
A---------------|
E---------------|

Bm                        A                   D
Hay que ver que punteria no te arrimas a una buena

Chorus

Soldadito marinero conociste a una sirena
Bm                                                A
De esas que dicen 'te quiero' si ven la cartera llena

E-------------------|
B-------------------|
G------------2------|
D--2--2--2h4--------|
A-------------------|
E-------------------|

G                                       D
Escogiste a la mas guapa y a la menos buena

E--------------------|
B------3-------------|
G---2----2--2--------|
D--------------------|
A--------------------|
E--------------------|

Bm                       A                   D
Sin saber como ha venido te ha cogido la tormenta


SOLO: G D Bm A      G D Bm-A-D

              G        D              Bm     A                   G
               full bend
E------------------/\__---------------------------------------------|
B------------------10--10-----------7----------(/12)--------10-9-8--|
G---/11--9\7----------------------7---9--7\6\4--------11-11---------|
D------------6\5-------------7h9------------------------------------|
A-------------------------------------------------------------------|
E-------------------------------------------------------------------|

                                       D        Bm-A-D
----------/14-10----------------------------------------|
-------12---------12p10h12p10h12----------------7-------|
-11h12---------------------------10h11-7-----------9--7-|
----------------------------------------7h9-7-----------|
--------------------------------------------------------|
--------------------------------------------------------|

G                            D
   Despues de un invierno malo

                  A
   Una mala primavera

                          Bm
   dime por que estas buscando

                       G
   Una lagrima en la arena (x 3)

                           D
   Despues de un invierno malo

E----------2-0--------2---|
B------3------------3---3-|
G----2---2--------2-------|
D--0------------0---------|
A-------------------------|
E-------------------------|            
Submit corrections

↑ Back to top | Tablatures and chords for acoustic guitar and electric guitar, ukulele, drums are parodies/interpretations of the original songs. You may use it for private study, scholarship, research or language learning purposes only