Home » F » Finley »

Finley - Scegli Me Tabs

Artists:  A B C D E F G H I J K L M N O P Q R S T U V W X Y Z # 

Scegli Me Tabs

(ver. 1) Click to play this song!
Finley
 Rating:
4/5 (8 votes)
                 Intro
 e|---------------------------|
 B|-------9---9---9-----9-11--|
 G|-----8--8----8-----8-------|
 D|---6-----------------------|
 A|---------------------------|
 E|---------------------------|

  Strofa
 e|---------------------------------------------------------------------|  |
 B|------9-----9---9-------9----9----------9-----9---9------9----9------|  |
 G|----8---8-----8----8-------8---8------8---8-----8----8------8---8----|  |
 D|--6------------------6-----------------------------------------------|  |
 A|------------------------------------8------------------8-------------|  |
 E|---------------------------------------------------------------------|  |
                                                                        |  |--->X2
 e|---------------------------------------------------------------------|  |
 B|------9----9----9-------9----9----------9-----9---9------9----9------|  |
 G|----8---8----8-----8-------8---8------8---8-----8----8------8---8----|  |
 D|---------------------------------------------------------------------|  |
 A|------------------------------------6------------------6-------------|  |
 E|--9------------------9-----------------------------------------------|  |

  Rit. (in questo pezzo usa molto gli stoppati...ascoltare x capire...)
 e|--------------------------------------------------------------------|   |
 B|--9-9-x-9-9-x-9----9-9-x-9-9-x-9----9-9-x-9-9-x-9---9-9-x-9-9-x-9---|   |
 G|--8-8-x-8-8-x-8----8-8-x-8-8-x-8----8-8-x-8-8-x-8---8-8-x-8-8-x-8---|   |
 D|--6-6-x-6-6-x-6----6-6-x-6-6-x-6----x-x-x-x-x-x-x---x-x-x-x-x-x-x---|   |
 A|------------------------------------8-8-x-8-8-x-8---8-8-x-8-8-x-8---|   |
 E|--------------------------------------------------------------------|   |
                                                                           |--->X2
 e|--------------------------------------------------------------------|   |
 B|--9-9-x-9-9-x-9----9-9-x-9-9-x-9----9-9-x-9-9-x-9---9-9-x-9-9-x-9---|   |
 G|--8-8-x-8-8-x-8----8-8-x-8-8-x-8----8-8-x-8-8-x-8---8-8-x-8-8-x-8---|   |
 D|--x-x-x-x-x-x-x----x-x-x-x-x-x-x----x-x-x-x-x-x-x---x-x-x-x-x-x-x---|   |
 A|--x-x-x-x-x-x-x----x-x-x-x-x-x-x----6-6-x-6-6-x-6---6-6-x-6-6-x-6---|   |
 E|--9-9-x-9-9-x-9----9-9-x-9-9-x-9------------------------------------|   |


 e|--------------------------------------------------------------------|
 B|--9-9-x-9-9-x-9----9-9-x-9-9-x-9----9-9-x-9-9-x-9---9-9-x-9-9-x-9---|
 G|--8-8-x-8-8-x-8----8-8-x-8-8-x-8----8-8-x-8-8-x-8---8-8-x-8-8-x-8---|
 D|--6-6-x-6-6-x-6----6-6-x-6-6-x-6----x-x-x-x-x-x-x---x-x-x-x-x-x-x---|
 A|------------------------------------8-8-x-8-8-x-8---8-8-x-8-8-x-8---|
 E|--------------------------------------------------------------------|

Strofa (solo 1 volta)
Rit.
Durante il solo di basso ripetere la strofa una volta soltanto, poi...

(Palm-mute con distorsione)

FAm                 DO#      sOL#                          RE#     (MI)
Tu...dal cielo un angelo...ascolta il mio respiro e scegli me...
FAm                 DO#       SOL#                     RE#          
Mai...nemmeno un attimo...ti pentirai se adesso scegli me...
FAm                 DO#          SOL#                       RE#
Stai...sentendo il battito...del cuore che ti chiede scegli me...

 e|--------------------------------------------------------------------|
 B|--9-9-x-9-9-x-9----9-9-x-9-9-x-9----9-9-x-9-9-x-9---9-9-x-9-9-x-9---|
 G|--8-8-x-8-8-x-8----8-8-x-8-8-x-8----8-8-x-8-8-x-8---8-8-x-8-8-x-8---|
 D|--6-6-x-6-6-x-6----6-6-x-6-6-x-6----x-x-x-x-x-x-x---x-x-x-x-x-x-x---|
 A|------------------------------------8-8-x-8-8-x-8---8-8-x-8-8-x-8---|
 E|--------------------------------------------------------------------|
                         ...scegli me....                 ...scegli    
 e|--------------------------------------------------------------------|
 B|--9-9-x-9-9-x-9----9-9-x-9-9-x-9----9-9-x-9-9-x-9---9-9-x-9-9-x-9---|
 G|--8-8-x-8-8-x-8----8-8-x-8-8-x-8----8-8-x-8-8-x-8---8-8-x-8-8-x-8---|
 D|--x-x-x-x-x-x-x----x-x-x-x-x-x-x----x-x-x-x-x-x-x---x-x-x-x-x-x-x---|
 A|--x-x-x-x-x-x-x----x-x-x-x-x-x-x----6-6-x-6-6-x-6---6-6-x-6-6-x-6---|
 E|--9-9-x-9-9-x-9----9-9-x-9-9-x-9------------------------------------|
        me...          ...scegli me....

 Fine 
 e|-----|
 B|--9--|
 G|--8--|
 D|--6--| o se volete fare l'accordo è sol#
 A|-----|
 E|-----|
            
Submit corrections

↑ Back to top | Tablatures and chords for acoustic guitar and electric guitar, ukulele, drums are parodies/interpretations of the original songs. You may use it for private study, scholarship, research or language learning purposes only