Home » F » Finley »

Finley - Questo Sono Io Bass

Artists:  A B C D E F G H I J K L M N O P Q R S T U V W X Y Z # 

Questo Sono Io Bass

(ver. 1) Click to play this song!
Finley
 Rating:
4.3/5 (6 votes)
                ----------------------------------------------------------------------------

                                 Finley - Questo sono io

                                    Bass tab
----------------------------------------------------------------------------
Tuning: Standard


Intro

G|--------------------------|
D|--------------------------|
A|------5-5-------3-3-3-3-3-|   x2
E|-3-3-------0-0------------|


verse 1

G|--------------------------|
D|--------------------------|
A|------5-5-------3-3-3-3-3-|   x2
E|-3-3-------0-0------------|


Pre chorus

G|------------------------------------|
D|------------------------------------|
A|--------33333---------55555--66666--|   
E|-00000---------33333----------------|

G|------------------------------|
D|------------------------------|
A|--------33333--5-5-5-5--33-33-|   
E|-00000------------------------|


Chorus

G|------------------------------------------|
D|------------------------------------------|
A|-----------555555555------------333333333-|   x4
E|-33333333-------------00000000------------|


Intro 2

G|--------------------------|
D|--------------------------|
A|------5-5-------3-3-3-3-3-|   
E|-3-3-------0-0------------|

verse 1

G|--------------------------|
D|--------------------------|
A|------5-5-------3-3-3-3-3-|   x2
E|-3-3-------0-0------------|

Pre chorus

G|------------------------------------|
D|------------------------------------|
A|--------33333---------55555--66666--|   
E|-00000---------33333----------------|

G|------------------------------|
D|------------------------------|
A|--------33333--5-5-5-5--33-33-|   
E|-00000------------------------|


Chorus

G|----------------------------------------|
D|----------------------------------------|
A|-----------55555555------------33333333-|   x4
E|-33333333------------00000000-----------|



Bridge

G|---------------------------------------------------------------------|
D|---------------------------------------------------------------------|
A|-----------------33333333333333------------------55555555--66666666--|   
E|-00000000000000------------------33333333333333----------------------|




chorus

G|------------------------|
D|------------------------|
A|------5-5-------3-3-3-3-|   
E|-3-3-------0-0----------|


G|----------------------------------------|
D|----------------------------------------|
A|-----------55555555------------33333333-|   x3
E|-33333333------------00000000-----------|


G|---------------------|
D|---------------------|
A|---------------------|   
E|--3-3----------------|
            
Submit corrections

↑ Back to top | Tablatures and chords for acoustic guitar and electric guitar, ukulele, drums are parodies/interpretations of the original songs. You may use it for private study, scholarship, research or language learning purposes only