Home » F » Finley »

Finley - Ricordi Tabs

Artists:  A B C D E F G H I J K L M N O P Q R S T U V W X Y Z # 

Ricordi Tabs

(ver. 1) Click to play this song!
Finley
 Rating:
4/5 (4 votes)
                

Hi! This is my first tab here, it's the solo part from the new Finley's song "Ricordi" 
you like it ;-)


E|------15------15------15--------15----15---13---12-------|
B|--13------13------13------13-----------------------------|
G|---------------------------------------------------------|
D|---------------------------------------------------------|
A|---------------------------------------------------------|
E|---------------------------------------------------------|

E|---12---13---12---15---12---13---12---15---15---13---12--|
B|---------------------------------------------------------|
G|---------------------------------------------------------|
D|---------------------------------------------------------|
A|---------------------------------------------------------|
E|---------------------------------------------------------|

E|------15------15------15--------15----15---13---12-------|
B|--13------13------13------13-----------------------------|
G|---------------------------------------------------------|
D|---------------------------------------------------------|
A|---------------------------------------------------------|
E|---------------------------------------------------------|

E|--13--12~---13--12---------------------------------------|
B|---------------------13\---------------------------------|
G|---------------------------------------------------------|
D|---------------------------------------------------------|
A|---------------------------------------------------------|
E|---------------------------------------------------------|
            
Submit corrections

↑ Back to top | Tablatures and chords for acoustic guitar and electric guitar, ukulele, drums are parodies/interpretations of the original songs. You may use it for private study, scholarship, research or language learning purposes only