Home » F » Finley »

Finley - Domani Tabs

Artists:  A B C D E F G H I J K L M N O P Q R S T U V W X Y Z # 

Domani Tabs

(ver. 1) Click to play this song!
Finley
UPDATE > 29/12/2008 [O.O]
IMPORTANT > TUNING DROP D

Intro:
(GUITAR 2)
|--0--------------|--0--------------|--0--------------|--0--------------|
|----2-2-3-2------|----2-2-3-2------|----2-2-3-2------|----2-2-3-2------|
|------------2-4--|------------2-4--|------------2-4--|------------7-6--|
|-----------------|-----------------|-----------------|-----------------|
|-----------------|-----------------|-----------------|-----------------|
|-----------------|-----------------|-----------------|-----------------| x2

(GUITAR 1)
|--------------------|--------------------|-----
|--------------------|--------------------|-----
|--------------------|-----6--------------|-----
|--7--0--4--2--0--2--|--7--6--4--2--0--2--|--7--
|--7--0--4--2--0--2--|--7--4--4--2--0--2--|--7--
|--7--0--4--2--0--2--|--7-----4--2--0--2--|--7--

Verso:                                 Pre Rit:         Rit:
|-----7--------7--------7----7-------|--------------| -----------------|
|--9--10----9--10----9--10---9-10-9--|--------------| -----------------|
|--9--9-----9--9-----9--9----9-9--9--|--------7-----| -----6-----------| 
|------------------------------------|--4--2--7--7--| --7--6--4--0--2--| x2
|------------------------------------|--4--2--5--7--| --7--4--4--0--2--|
|------------------------------------|--4--2-----7--| --7-----4--0--2--|

Intro:                  Verso:
|--------------------| ---------------------|-----7--------7--------7----7-------|
|--------------------| ---------------------|--9--10----9--10----9--10---9-10-9--|
|--------------------| -----6------4-----4--|--9--9-----9--9-----9--9----9-9--9--|
|--7--0--4--2--0--2--| --7--6---7--4--7--4--|------------------------------------|
|--7--0--4--2--0--2--| --7--4---7--2--7--2--|------------------------------------|
|--7--0--4--2--0--2--| --7------7-----7-----|------------------------------------|

Pre Rit:                                         Rit:
|----------------| --xx------------------------| -----------------|    -----
|----------------| --xx----------------1010----| -----------------|    -----
|--------7-------| --xx-------7------------99--| -----6-----------|    -----
|--4--2--7--7-2--| --xx-4--2--7--7-2-----------| --7--6--4--0--2--| x2 --7--
|--4--2--5--7-2--| --xx-4--2--5--7-2-----------| --7--4--4--0--2--|    --7--
|--4--2-----7-2--| --xx-4--2-----7-2-----------| --7-----4--0--2--|    --7--

Solo:
|----------|--------|----------------|
|----------|--------|----3/2/3/2-----|
|-13/14/13-|-9-11-9-|-2-----------2--|
|----------|--------|----------------|
|----------|--------|----------------|
|----------|--------|----------------|

|-------------|-------------------------------12--|
|-------------|-12-10-12--14-12-14--15-14-15------|
|-1--1/2--7/9-|-----------------------------------|
|-------------|-----------------------------------|
|-------------|-----------------------------------|
|-------------|-----------------------------------|

Pre Rit:                         Rit:
|----------------|    --------|  -----------------|    -----
|----------------|    --------|  -----------------|    -----
|--------7-------|    --------|  -----6-----------|    -----
|--4--2--7--7-2--| x3 --4--2--|  --7--6--4--0--2--| x2 --7--
|--4--2--5--7-2--|    --4--2--|  --7--4--4--0--2--|    --7--
|--4--2-----7-2--|    --4--2--|  --7-----4--0--2--|    --7--
            
Submit corrections

↑ Back to top | Tablatures and chords for acoustic guitar and electric guitar, ukulele, drums are parodies/interpretations of the original songs. You may use it for private study, scholarship, research or language learning purposes only