» » »

Fink - This Is The Thing Tabs

Artists:  A B C D E F G H I J K L M N O P Q R S T U V W X Y Z # 

This Is The Thing Tabs

(ver. 1) Click to play this song!
Fink
 Rating:
4.4/5 (7 votes)

 This Is The Thing lessons Tabs too difficult? Try these video lessons and learn fast
 
                ----------------------------------------------------------------------------
---------------------------------------------------------------------------

video version
Tuning: double drop D
^ = upwards stum

Intro (x8)
d|-----------------------------------------------|
B|-----------------------------------------------|
G|-----------------------------------------------|
D|-----------------------------------------------|
A|----5-5----------------------------------------|
D|-0--000----------------------------------------|
      ^ ^

Verse (x2)
d|-------------------------------------------------------------------------|
B|-------------------------------------------------------------------------|
G|-------------------------------------------------------------------------|
D|-------------------------------------------------------------------------|
A|-----55-(x4)-------99-(x4)------55-(x2)------99-(x6)---------------------|
D|-5--555--------9--999-------5--555-------9--999--------------------------|
       ^             ^            ^            ^

Chorus (Guessin , i have no clue but i think it has this in it )
d|-------------------------------------------------------------------------|
B|-------------------------------------------------------------------------|
G|-------------------------------------------------------------------------|
D|-------------------------------------------------------------------------|
A|-----33-(x2)--------55-(x2)----------99-(x4)-----------------------------|
D|-3--333---------5--555-----------9--999----------------------------------|
       ^              ^                ^

Looked everywhere for this tab and i cant find one anywhere so ive had a go, its my 
tab if u got any corrections plz tell us i know it aint perfect an it aint got a ending but 
had a go

i think its best 2 use fingers 2
            
Submit corrections


        This Is The Thing lessons Hard to play? Try these video lessons and learn fast This Is The Thing lessons
        
↑ Back to top | Tablatures and chords for acoustic guitar and electric guitar, ukulele, drums are parodies/interpretations of the original songs. You may use it for private study, scholarship, research or language learning purposes only