» » »

Fink - Honesty Tabs

Artists:  A B C D E F G H I J K L M N O P Q R S T U V W X Y Z # 

Honesty Tabs

(ver. 1) Click to play this song!
Fink
 Rating:
4/5 (4 votes)

 Honesty lessons Tabs too difficult? Try these video lessons and learn fast
 
                -------------------------------------------------------------------------------
-------------------------------------------------------------------------------
Adjustments by: Tom Raaff

Tuning: D A D G B E

Intro and verse
D|------------------------|------------------------|------------|------------|------------------------|
A|------------------------|------------------------|------------|------------|------------------------|
D|------------------------|------------------------|------------|------------|------------------------|
G|----3-----3-----3-----3-|----3-----3-----3-----3-|----3-----3-|----2-----0-|----0-----0-----0-----0-|
B|------------------------|------------------------|------------|------------|------------------------|
E|-0-----0-----0-----0----|-0-----0-----0-----0----|-0-----0----|-3-----3----|-2-----2-----2-----2----|
                               Who was it telling me honestly, honesty is all about the time

D|------------------------|------------|------------------------|------------------------|
A|------------------------|------------|------------------------|------------------------|
D|------------------------|------------|------------------------|------------------------|
G|----0-----0-----0-----0-|----2-----0-|----3-----3-----3-----3-|----2-----2-----2-----2-|
B|------------------------|------------|------------------------|-4-----4-----4-----4----|
E|-2-----2-----2-----2----|-3-----3----|-5-----5-----5-----5----|------------------------|
                Oh my bad, there i was thinking honesty was all about truth|

|------------------------|
|------------------------|
|------------------------|
|----3-----3-----3-----3-|
|------------------------|
|-0-----0-----0-----0----|


D|------------|-------------------------|-------------|-----------------------|-----------------------|
A|------------|-------------------------|-------------|-----------------------|-----------------------|
D|------------|-------------------------|-------------|-----------------------|-----------------------|
G|---3-----3--|----2-----2-----3-----3--|----2-----0--|---0-----0-----0-----0-|----0-----0-----0-----0|
B|------------|-0-----0-----1-----1-----|-------------|-----------------------|-----------------------|
E|0-----0-----|-------------------------|--3-----3----|-2-----2----2-----2----|-2-----2-----2-----2---|
        Oh, woe is me

D|------------|-------------------------|------------------------|------------------------|
A|------------|-------------------------|------------------------|------------------------|
D|------------|-------------------------|------------------------|------------------------|
G|----2-----0-|----3-----3-----3-----3--|----2-----2-----2-----2-|----3-----3-----3-----3-|
B|------------|-------------------------|--4----4-----4-----4----|------------------------|
E|-3-----3----|--5-----5----5-----5-----|------------------------|-0-----0-----0-----0----|
                 And your honesty|

|------------------------|
|------------------------|
|------------------------|
|----3-----3-----3-----3-|
|------------------------|
|-0-----0-----0-----0----|



chorus
D|------------------------|-------------------------|------------------------|------------------------|
A|------------------------|-------------------------|------------------------|------------------------|
D|------------------------|-------------------------|------------------------|------------------------|
G|----3-----3-----3-----3-|----2-----2-----2-----2--|----2-----2-----2-----2-|----3-----3-----3-----3-|
B|------------------------|-3-----3-----3-----3-----|------------------------|-1-----1-----1-----1----|
E|-5-----5-----5-----5----|-------------------------|-3-----3-----3-----3----|------------------------|
               We've had conversations                  about the past          it's
D|------------------------|-------------------------|------------------------|------------------------|
A|------------------------|-------------------------|------------------------|------------------------|
D|------------------------|-------------------------|------------------------|------------------------|
G|---3------3-----3-----3-|----2-----2-----2-----2--|----3-----3-----3-----3-|----4-----4-----4-----4-|
B|------------------------|-4-----4-----4-----4-----|------------------------|-5-----5-----5-----5----|
E|-5-----5-----5-----5----|-------------------------|-0-----0-----0-----0----|------------------------|
        Taken long enough to see                        your true colors
D|------------------------|-------------------------|------------------------|------------------------|
A|------------------------|-------------------------|------------------------|------------------------|
D|------------------------|-------------------------|------------------------|------------------------|
G|----3-----3-----3-----3-|----2-----2-----2-----2--|----2-----2-----2-----2-|----3-----3-----3-----3-|
B|------------------------|-3-----3-----3-----3-----|------------------------|-1-----1-----1-----1----|
E|-5-----5-----5-----5----|-------------------------|-3-----3-----3-----3----|------------------------|
                You've got so many baby        You're like a f**king rainbow            just
D|------------------------|-------------------------|------------------------|------------------------|
A|------------------------|-------------------------|------------------------|------------------------|
D|------------------------|-------------------------|------------------------|------------------------|
G|---3------3-----3-----3-|----2-----2-----2-----2--|----2-----2-----2-----2-|----3-----3-----3-----3-|
B|------------------------|-4-----4-----4-----4-----|-4-----4-----4-----4----|------------------------|
E|-5-----5-----5-----5----|-------------------------|------------------------|-0-----0-----0-----0----|
        let me revel in your blue                                              
D|------------------------|
A|------------------------|
D|------------------------|
G|----3-----3-----3-----3-|
B|------------------------|
E|-0-----0-----0-----0----|
notes
            
Submit corrections


        Honesty lessons Hard to play? Try these video lessons and learn fast Honesty lessons
        
↑ Back to top | Tablatures and chords for acoustic guitar and electric guitar, ukulele, drums are parodies/interpretations of the original songs. You may use it for private study, scholarship, research or language learning purposes only