Home » F » Fine Young Cannibals »

Fine Young Cannibals - Dont Look Back Tabs

Artists:  A B C D E F G H I J K L M N O P Q R S T U V W X Y Z # 

Dont Look Back Tabs

(ver. 2) Click to play this song!
Fine Young Cannibals
ntro:

Rhythm: (Palm mutes) 
e|------------------
B|11111111----------
G|00000000----------
D|22222222-3333-5555
A|33333333-3333-5555
E|---------1111-3333

Lead:
e|--------------------|-----------------------
B|-----------1-0--0---|-----------------------
G|----2-0-0------2-2-0|-----2-0-0-------------
D|-2-----2------------|--2-----2---3-2--0-2-0-
A|3-------------------|-3--------------------3
E|--------------------|-----------------------

Verse:

Rhythm: (Palm mutes)
e|-------------------
B|1111---------------
G|0000-5-4-----------
D|2222-5555-3333-5555
A|3333-5555-3333-5555
E|-----3333-1111-3333

Lead: (Selective muting...)
e|---------------------------------
B|-----1-0----------------1-0--0---
G|--0------------------0------2-2-0
D|-2-2-----3333-3333--2-0----------
A|3--------3333-3333\3-------------
E|---------1111-3333---------------

Pre-chorus:
Rhythm: Distorted
e|-----------------
B|-----------------
G|-----------------
D|12---7---5---7---
A|12---7---5---7---
E|10---5---3---5---

Chorus:

Rhythm:
e|------------------
B|------------------
G|------------------
D|5---7-7---12------
A|5---7-7---12------
E|3---5-5---10------

Lead:
e|-----------------------------------
B|----------5--5--5--------5--5------
G|-----------7--7-----------7--7-----
D|------------7--7-----------7--7-5-4
A|-----------------------------------
E|-----------------------------------
            
Submit corrections

↑ Back to top | Tablatures and chords for acoustic guitar and electric guitar, ukulele, drums are parodies/interpretations of the original songs. You may use it for private study, scholarship, research or language learning purposes only