» » »

Filter - Where Do We Go From Here? Tabs

Artists:  A B C D E F G H I J K L M N O P Q R S T U V W X Y Z # 

Where Do We Go From Here? Tabs

(ver. 3) Click to play this song!
Filter
 Rating:
4/5 (4 votes)

 Where Do We Go From Here? lessons Tabs too difficult? Try these video lessons and learn fast
 
                


Intro 
   (Guitar 1)            (Guitar 2 or sound-effects w/Delay)
e|---------------------|--------------------
B|---------------------|----3-3-3-7-7-7-----
G|---------------------|--------------------
D|---11---0---7---4----|--------------------
A|----x---0---x---x----|--------------------
D|----9---0---5---2----|--------------------



Verse						
   Repeat 3x             then this 1x          (Guitar 2 or sound-effects)
e|---------------------|---------------------|--------------------------
B|--------3------------|----------------3----|--------------------------
G|---11---2---7---4----|---11---4---7---2----|--------------------------
D|---11---0---7---4----|---11---4---7---0----|--------------------------
A|----9---0---5---2----|----9---2---5---0----|----5-5-5-5---5-5-5-5-----
D|----9---0---5---2----|----9---2---5---0----|--------------------------
                                                  ^2nd Verse ONLY!!!


Pre-Chorus
e|------------------------------------------------------------
B|------------------------------------------------------------
G|--------------------------------12-12-12-12-12-12-12-12-----
D|----xxxx---5/8-8-8-8---0--0-0---12-12-12-12-12-12-12-12-----
A|----xxxx---5/8-8-8-8---0--0-0---10-10-10-10-10-10-10-10-----
D|----xxxx---5/8-8-8-8---0--0-0---10-10-10-10-10-10-10-10-----



Chorus
   (Guitar 1)            (Guitar 2 or sound-effects)
e|---------------------|--------------
B|---------------------|----7-8-7-----
G|---------------------|--------------
D|---11---0---7---4----|--------------
A|----9---0---5---2----|--------------
D|----9---0---5---2----|--------------



Interlude
   (Guitar 1)
e|----2----------------2-----
B|----2---3---5-------5------
G|----4---2---7------4-------
D|----4---0---7-----2--------
A|----2---0---5----2---------
D|--------0---5---2----------

   (Guitar 2 or sound-effects w/delay)
e|------------------------------------------------------------
B|----10--10-10-10\7-7-7-7\3-3-3-----10--10-10-10\7-7h8p7-----
G|-------------------------------4-4--------------------------
D|------------------------------------------------------------
A|------------------------------------------------------------
D|------------------------------------------------------------



Solo 
   (Guitar 1 plays solo while Guitar 2 plays Pre-Chorus)
e|--------------------------------------------------------
B|--------------------------------------------------------
G|----7-9-9------------7-9-9--------------7-9-9-----------
D|----------7----------------7------------------7---------
A|-------------7^--5^-----------7^--8-10-----------7^-----
D|--------------------------------------------------------



Outro Chorus: (repeat 2x till end)
   (Guitar 1 plays Outro Chorus while Guitar 2 plays Chorus)
e|--------------------------------------------
B|--------------------------------------------
G|----7---4----9---4----11---4----(9---4)-----
D|----x---x----x---x-----x---x----(x---x)-----
A|----5---2----7---2-----9---2----(7---2)-----
D|-----------------------------------^First time only



Heard throughout the song
   (Guitar 2 or sound-effects) 
e|--------7-----------------------
B|----------7-------------7-------
G|------7-------or------7---7-----
D|----7---------------7-----------
A|--------------------------------
D|--------------------------------


End on this
e|----------
B|----3-----
G|----2-----
D|----0-----
A|----0-----
D|----0-----


Well, thats about it.  There are alot of other sound-effects and backing stuff that i can't tab.  I swear this the most correct tab out there.
            
Submit corrections


        Where Do We Go From Here? lessons Hard to play? Try these video lessons and learn fast Where Do We Go From Here? lessons
        
↑ Back to top | Tablatures and chords for acoustic guitar and electric guitar, ukulele, drums are parodies/interpretations of the original songs. You may use it for private study, scholarship, research or language learning purposes only