Home » F » Filter »

Filter - Where Do We Go From Here? Tabs

Artists:  A B C D E F G H I J K L M N O P Q R S T U V W X Y Z # 

Where Do We Go From Here? Tabs

(ver. 2) Click to play this song!
Filter
 Rating:
4/5 (4 votes)
                DROP D Tuning
Intro/Verse
[----------------------------------------------------------------------]
[----------------------------------------------------------------------]
[----------------------------------------------------------------------]
[--11----------------0--------------7--------------2-------------------]
[--------------------0-----------------------------2-------------------]
[---9----------------0--------------5--------------2-------------------]

Chorus
[----------------------------------------------------------------------]
[----------------------------------------------------------------------]
[--x-------------------------------------------------------------------]
[--x-----8----8----8----8---------0--------10----10--------------------]
[--x-----8----8----8----8---------0------------------------------------]
[--x-----8----8----8----8---------0--------12----12--------------------]
(then repeat verse)
(Not the right picking but youll figure it out)
 
[-----------------------------------------------------------------]
[-----------------------------------------------------------------]
[--7--9--9--2--------------7--9--9--2----------7--9--9--2---------]
[-------------------3--5------------------------------------------]
[---------------7^---------------------7^--5^--------------5^-----]
[-----------------------------------------------------------------]
(^ bend slightly)

Intro(quiet distortion)
Verse(clean)
Chorus
Verse
Chorus
Solo
Chorus
            
Submit corrections

↑ Back to top | Tablatures and chords for acoustic guitar and electric guitar, ukulele, drums are parodies/interpretations of the original songs. You may use it for private study, scholarship, research or language learning purposes only