» » »

Fergie - Clumsy Tabs

Artists:  A B C D E F G H I J K L M N O P Q R S T U V W X Y Z # 

Clumsy Tabs

(ver. 1) Click to play this song!
Fergie
 Rating:
3.4/5 (5 votes)
                (Intro)
Fergie - Clumsy
The Dutchess CD
Standard Tuning

I don't know why I bothered trying at this haha


The synth part thing:

e----8--88-----88-------------|
b-----------------------------|
g--5-------55-----------------|
d-----------------------------|
a-----------------------------|
E-----------------------------|


"Girl can't help it," there's a chord strummed, which is also at the weird intro.

e------------------------|
b------------------------|
g--5---------------------|
d--5---------------------|
a--3---------------------|
E------------------------|
            
Submit corrections

↑ Back to top | Tablatures and chords for acoustic guitar and electric guitar, ukulele, drums are parodies/interpretations of the original songs. You may use it for private study, scholarship, research or language learning purposes only