» » »

Fences - My Girl The Horse Tabs

Artists:  A B C D E F G H I J K L M N O P Q R S T U V W X Y Z # 

My Girl The Horse Tabs

(ver. 1) Click to play this song!
Fences
 Rating:
4.4/5 (7 votes)
                the strum pattern for the clusters of repeating chords is a down-strum for the first
chord and an up-strum for the second, if that makes sense... if you listen to the song
you'll get the strum pattern :) also, i called one section the chorus and another 
section the verse even though im unsure which is which, just so its easier to comprehend parts

standard tuning
capo on 3rd fret

intro

e----0-0----0-0----0-0----0-0----0-0----0-0----0-0-|
B----1-1----1-1----1-1----1-1----1-1----1-1----1-1-|
G----2-2----0-0----0-0----2-2----2-2----2-2----2-2-|
D----2-2----2-2----0-0----2-2--2-2-2----2-2--2-2-2-|
A--0-0-0--3-3-3----2-2--0-0-0----0-0--0-0-0----0-0-|
E----------------3-3-3-----------------------------|

e----0-0----0-0----0-0----1-1----1-1----1-1----1-1-|
B----1-1----1-1----1-1----1-1----1-1----1-1----1-1-|
G----2-2----0-0----0-0----2-2----2-2----2-2----2-2-|
D----2-2----2-2----0-0----3-3----3-3----3-3----3-3-|
A--0-0-0--3-3-3----2-2----3-3--3-3-3----3-3--3-3-3-|
E----------------3-3-3--1-1-1----1-1--1-1-1----1-1-|

Chorus

"Please sir don't you ride on me..."

e----0-0----0-0----0-0----0-0----0-0----0-0----0-0-|
B----1-1----1-1----1-1----1-1----1-1----1-1----1-1-|
G----2-2----0-0----0-0----2-2----2-2----2-2----2-2-|
D----2-2----2-2----0-0----2-2--2-2-2----2-2--2-2-2-|
A--0-0-0--3-3-3----2-2--0-0-0----0-0--0-0-0----0-0-|
E----------------3-3-3-----------------------------|     x4

e----0-0----0-0----0-0----1-1----1-1----1-1----1-1-|
B----1-1----1-1----1-1----1-1----1-1----1-1----1-1-|
G----2-2----0-0----0-0----2-2----2-2----2-2----2-2-|
D----2-2----2-2----0-0----3-3----3-3----3-3----3-3-|
A--0-0-0--3-3-3----2-2----3-3--3-3-3----3-3--3-3-3-|
E----------------3-3-3--1-1-1----1-1--1-1-1----1-1-|

Interlude
(between the chorus and the verse.. i separated it into two parts to make it easier to
understand but it should be played continously/fluidly together)

e----0-0----0-0--------0-0-----   |---0-0----0-0--------0-0-----|
B----1-1----1-1--------1-1-----   |---1-1----1-1--------1-1-----|
G----2-2----2-2--x3----2-2-----   |---0-0----0-0--x3----0-0-----|   x2
D----2-2--2-2-2--------2-2-----   |---2-2----2-2--------2-2-----|
A--0-0-0----0-0------0-0-0-0-2-   |-3-3-3----3-3------3-3-3-3-2-|
E------------------------------   |--------3--------------------|

Verse

"neither one of us..."

    e----0-0----0-0----0-0----0-0----0-0----0-0----0-0----0-0-|
    B----1-1----1-1----1-1----1-1----1-1----1-1----1-1----2-2-|
(i) G----2-2----2-2----0-0----0-0----0-0----0-0----2-2----2-2-|  x4
    D----2-2--2-2-2----2-2--2-2-2----0-0----0-0----2-2--2-1-1-|
    A--0-0-0----0-0--3-3-3----3-3----2-2--2-2-2--0-0-0----0-0-|
    E------------------------------3-3-3----3-3---------------|

    e----0-0----0-0-|
    B----1-1----1-1-|
(ii)G----2-2----2-2-|
    D----2-2--2-2-2-|
    A--0-0-0----0-0-|
    E---------------|


Repeat Chorus
Repeat Interlude
Repeat Verse (i) (2 & 1/2 times)

End On

e----0--|
B----1--|
G----2--|
D----2--|
A----0--|
E-------|

once you get it, its fairly easy!
enjoy!
            
Submit corrections

↑ Back to top | Tablatures and chords for acoustic guitar and electric guitar, ukulele, drums are parodies/interpretations of the original songs. You may use it for private study, scholarship, research or language learning purposes only