» » »

Fastway - Tell Me Tabs

Artists:  A B C D E F G H I J K L M N O P Q R S T U V W X Y Z # 

Tell Me Tabs

(ver. 1) Click to play this song!
Fastway
 Rating:
4.3/5 (29 votes)

 Tell Me lessons Tabs too difficult? Try these video lessons and learn fast
 
                [Intro & Main Riff]
                  h   p                             h  p    p
e|---------------------------|---------------------------------------|
B|-13--12---12--12-13-12-----|--12--13--12---12--12-13-12------------|
G|-12--12---12-----------12--|--12--12--12---12-----------14-12------|
D|-14--12--------------------|--12------12----------------------14---|
A|---------------------------|---------------------------------------|
E|---------------------------|---------------------------------------|

[Pre Chorus]
e|---------------------------|---------------------------------------|
B|---------------------------|---------------------------------------|
G|--10--------------12-\-----|-----------------------------/--10-----|
D|--10--------------12-\-----|----------3------------------/--10-----|
A|---------------------------|--------------5------------------------|
E|---------------------------|-1--3--5----------3---1----------------|
  She got me....

                                                  h p
e|-------------------------------------|-------------------|
B|-------------------------------------|---12--12-13-12----|
G|-(10)--7--------------5--------3-----|---12-----------12-|
D|-(10)--7--------------5--------3---5-|-------------------|
A|-----------------------------------5-|-------------------|
E|-----------------------------------3-|-------------------|
 
[Chorus]                          x3
e|----------------------------------|--------------------------------|
B|----------------------------------|--------------------------------|
G|--12-----12-12-12---12--12--------|--------------------------------|
D|--12-----12-12-12---12--12---10---|---12----------10------8------5-|
A|--10-----10-10-10---10--10---10---|---12----------10------8------5-|
E|-----------------------------8----|---10----------8-------6------3-|
  Tell me....


            
Submit corrections


        Tell Me lessons Hard to play? Try these video lessons and learn fast Tell Me lessons
        
↑ Back to top | Tablatures and chords for acoustic guitar and electric guitar, ukulele, drums are parodies/interpretations of the original songs. You may use it for private study, scholarship, research or language learning purposes only