» » »

Fall Out Boy - What A Catch Donnie Tabs

Artists:  A B C D E F G H I J K L M N O P Q R S T U V W X Y Z # 

What A Catch Donnie Tabs

(ver. 1) Click to play this song!
Fall Out Boy
 Rating:
4/5 (4 votes)


 What A Catch Donnie lessons Tabs too difficult? Try these video lessons and learn fast
 
                                          WHAT A CATCH DONNIE
band:fall out boy
album:folia a duex

                         this is my new improved tab of what a catch donnie. and i wanna
thank u to tinseltown for not beig such an a**hole in his comment,cuz some people
way here you are


intro (keep picking until after patrick is done singing and until the bass enters)
e|----|
b|----|
g|-/7-|
d|----|
a|-/5-|
E|----|

verse 1
e|------------------6---------|
b|-----------2-4-6h8----------|
g|-/7~-6~-4~-2-4--------------|
d|---------------------7~76~~~|
a|----------------------------|
E|----------------------------|

pre-chorus
e|---------------------------------|
b|---------------------------------|
g|-11-13-9-------7-9~-11-9~--------|
d|------------7-9-----------7-6-5-4|
a|---------7h9--------------7-6-5-4|
E|--------------------------5-4-3-2|

chorus x2
e|---------------------------------------------|
b|---------------------------------------------|
g|---------------------------------------3---5~|
d|7-7-7-7-5-5-5-5-4-4-4-4-3-3----3~---3----5---|
a|7-7-7-7-5-5-5-5-4-4-4-4-3-3-3h5--3h5---------|
E|5-5-5-5-3-3-3-3-2-2-2-2-1-1------------------|

post chorus
e|--|
b|--|
g|2~|
d|2~|
a|0~|
E|--|

verse 2
e|----------------------|
b|----------13\5-3-2-22~|
g|----77~---------------|
d|7-9-------------------|
a|----------------------|
E|----------------------|

pre-chorus x1
chorus x1

bridge
for the first part just play the chorus...
then
e|-----------------------------------------------------------------------|
b|-----------------------------------------------------------------------|
g|6-6-6-6-9-9-9-9-10111111116-6-6-6-7-7-7-7-9-9-9-9-101111111112-12-12-12|
d|6-6-6-6-9-9-9-9-10111111116-6-6-6-7-7-7-7-9-9-9-9-101111111112-12-12-12|
a|4-4-4-4-7-7-7-7-8-9-9-9-9-4-4-4-4-5-5-5-5-7-7-7-7-8-9-9-9-9-10-10-10-10|
E|-----------------------------------------------------------------------|

then
e|----------------|
b|----------------|
g|1010101010101010|
d|1010101010101010|
a|8-8-8-8-8-8-8-8-|
E|----------------|

Then just play the chorus to the end.

Hope u enjoy. And this time im pretty sure its 100% correct
            
Submit corrections



        What A Catch Donnie lessons Hard to play? Try these video lessons and learn fast What A Catch Donnie lessons
        
↑ Back to top | Tablatures and chords for acoustic guitar and electric guitar, ukulele, drums are parodies/interpretations of the original songs. You may use it for private study, scholarship, research or language learning purposes only