Home » F » Fall Out Boy »

Fall Out Boy - Honorable Mention Tabs

Artists:  A B C D E F G H I J K L M N O P Q R S T U V W X Y Z # 

Honorable Mention Tabs

(ver. 2) Click to play this song!
Fall Out Boy
 Rating:
4/5 (4 votes)
                FALL OUT BOY
HONORABLE MENTION

Work out the strumming pattern for some bits, shouldn't be too hard, this tab is pretty
loose and i only tabbed one guitar part but its better than the other 2 that are on this
site.

Intro
e ---------------------------------------------------|
B ---------------------------------------------------|
G ---3-7-9-10-9-10-12-10-9-10-12-10-9-10-7-9-10-9-10-|
D -3-3-x-x--x-x--x--x--x-x--x--x--x-x--x-x-x--x-x--x-|
A -3-1-5-7--8-7--8-10--8-7--8-10--8-7--8-5-7--8-7--8-|
E -1-------------------------------------------------|

Verse Part 1 - 2x
e --------------------|
B --------------------|
G -----------3-3------|
D -3-3--5-5--3-3------|
A -3-3--5-5--1-1--1-0-|
E -1-1--3-3-----------|

Verse Part 2 - 2x
e ---------------------------|
B ---------------------------|
G -------------------3-3-3-3-|
D -3-3-3-3--5-5-5-5--3-3-3-3-|
A -3-3-3-3--5-5-5-5--1-1-1-1-|
E -1-1-1-1--3-3-3-3----------|

Pre Chorus
e -----------------------------------------|
B -----------------------------------------|
G -----5-5-5-5-5-5-5------5-5-7-9-10-9-10--|
D -3---5-5-5-5-5-5-5-3----5-5-x-x--x-x--x--|
A -3---3-3-3-3-3-3-3-3----3-3-5-7--8-7--8--|
E -1-----------------1---------------------|

e -------------------------------------------------|
B -------------------------------------------------|
G -----5-5-5-5-5-5------5-5-5-5-5-5--7-7-7-7-7-7-3-|
D -3---5-5-5-5-5-5-3----5-5-5-5-5-5--7-7-7-7-7-7-3-|
A -3---3-3-3-3-3-3-3----3-3-3-3-3-3--5-5-5-5-5-5-1-|
E -1---------------1-------------------------------|

Chorus x 3

e ---------------------|
B ---------------------|
G ------3-3--2-2--7-9--|
D -3-3--3-3--2-2--x-x--|
A -3-3--1-1--0-0--5-7--|
E -1-1-----------------|

After Chorus
e -------|
B -------|
G ---3---|
D ---3---|
A ---1~--|
E -------|

Intro 

Verse

Pre Chorus

Chorus - 3x

After Chorus

Bridge 
e ----|
B ----|
G ----|
D 3-5-|
A 3-5-|
E 1-3-|

Chorus - 3x
            
Submit corrections

↑ Back to top | Tablatures and chords for acoustic guitar and electric guitar, ukulele, drums are parodies/interpretations of the original songs. You may use it for private study, scholarship, research or language learning purposes only