» » »

Fall Out Boy - Ginasfs Tabs

Artists:  A B C D E F G H I J K L M N O P Q R S T U V W X Y Z # 

Ginasfs Tabs

(ver. 3) Click to play this song!
Fall Out Boy
 Rating:
4/5 (4 votes)

 Ginasfs lessons Tabs too difficult? Try these video lessons and learn fast
 
                This is my first tab that I submitted. This is how I played the song. If you played it a 
way, tell me. DO NOT comment saying " this sucks" or etc. Just tell me wuts wrong.


Intro Part 1
Guitar 1
e|---------------|
B|---------------|
G|---------------|
D|-00-00-7-00-00-|
A|-00-00-7-00-00-|
D|-00-00-7-00-00-|

Intro Part 2
Guitar 1
e|------------------------------|
B|------------------------------|
G|------------------------------|
D|-00-00-7-00-00--99-79-7-99-79-| 2x
A|-00-00-7-00-00--99-79-7-99-79-|
D|-00-00-7-00-00--99-79-7-99-79-|

Intro Part 2
Guitar 2
e|---------------------------------------------------|
B|---------------------------------------------------|
G|-11-11-9-11-7-11-11-9-11--11-11-9-11-14-11-11-9-11-|
D|--x--x-x--x-x--x--x-x--x---x--x-x--x--x--x--x-x--x-| 2x
A|--9--9-7--9-5--9--9-7--9---9--9-7--9-12--9--9-7--9-|
D|---------------------------------------------------|

Verse 1
Both Guitars
e|---------------------|
B|---------------------|
G|---------------------|
D|-0~~9-7-5~~---777777-|
A|-0~~9-7-5~~---777777-|
D|-0~~9-7-5~~---777777-|

Verse 2
Both Guitars
e|----------------------------------------------|
B|----------------------------------------------|
G|----------------------------------------------|
D|-00-00-7-00-00--99-79-7-99-79-7--55-45--55-54-| Then....
A|-00-00-7-00-00--99-79-7-99-79-7--55-45--55-54-|
D|-00-00-7-00-00--99-79-7-99-79-7--55-45--55-54-|

e|------------------|
B|------------------|
G|------------------|
D|-0-------7--------|
A|-0-(8x)--7-(8x)---|
D|-0-------7--------|

Pre-Chorus
Guitar 1
e|--------------------|
B|--------------------|
G|--------------------|
D|-5--------0---------| 2x
A|-5-(16x)--0-(16x)---|
D|-5--------0---------|

Pre-Chorus
Guitar 2
e|-5-----------------5-------------------------------------|
B|---5-7-5-------------5-7-5-------------------------------|
G|----------7-6-4-2~~--------7------9------11------14------|
D|----------5-4-2-0~~--------x-(4x)-x-(4x)--x-(4x)--x-(4x)-|
A|---------------------------5------7-------9------12------|
D|---------------------------------------------------------|

Chorus 1
Guitar 1
e|----------------------------------------|
B|----------------------------------------|
G|-44-44-------------------44-44----------|
D|-44-44-55-55-00-00-44-44-44-44-22-22-4~~| 2x
A|-22-22-55-55-00-00-44-44-22-22-22-22-4~~|
D|-------55-55-00-00-44-44-------22-22-4~~|

Chorus 1
Guitar 2
e|----------------------------------------------|
B|----------------------------------------------|
G|----------------------------------------------|
D|-9-11-12-----12-14-16-----9-11-12-----8h9(8x)-| 2x
A|---------12~----------16~---------12----------|
D|----------------------------------------------|

After the chorus, you repeat:

-Intro Part 2
-Verse 1
-Verse 2
-Pre-Chorus
-Chorus 1
-Intro Part 1
-Intro Part 2


Bridge
Guitar 1
e|--------|
B|--------|
G|--------|
D|-7~~0~4~| 4x
A|-7~~0~4~|
D|-7~~0~4~|

Bridge
Guitar 2
e|-5-------|
B|---5-7-5-|
G|---------|
D|---------| (throughout the whole bridge)
A|---------|
D|---------|

Chorus 2
Guitar 1
e|--------------------------------------------|
B|--------------------------------------------|
G|-4-----------------------4------------------|
D|-4(8x)-5-----0-----4-----4(8x)-2-----4------| 2x
A|-2-----5(8x)-0(8x)-4(8x)-2-----2(8x)-4(16x)-|
D|-------5-----0-----4-----------2-----4------|

Chorus 2
Guitar 2
e|----------------------------------------------|
B|----------------------------------------------|
G|----------------------------------------------|
D|-9-11-12-----12-14-16-----9-11-12-----8h9(8x)-| 2x
A|---------12~----------16~---------12----------|
D|----------------------------------------------|

Outro
Both Guitars
e|------------|
B|------------|
G|------------|
D|-0~70~70~70-|
A|-0~70~70~70-|
D|-0~70~70~70-|


End....
            
Submit corrections


        Ginasfs lessons Hard to play? Try these video lessons and learn fast Ginasfs lessons
        
↑ Back to top | Tablatures and chords for acoustic guitar and electric guitar, ukulele, drums are parodies/interpretations of the original songs. You may use it for private study, scholarship, research or language learning purposes only