» » »

Fall Out Boy - Champagne For My Real Friends Real Pain For My Sham Friends Tabs

Artists:  A B C D E F G H I J K L M N O P Q R S T U V W X Y Z # 

Champagne For My Real Friends Real Pain For My Sham Friends Tabs

(ver. 1) Click to play this song!
Fall Out Boy
 Rating:
4/5 (4 votes)

 Champagne For My Real Friends Real Pain For My Sham Friends lessons Tabs too difficult? Try these video lessons and learn fast
 
                -------------------------------------------------------------------------------
                    CHAMPAGNE FOR MY REAL FRIENDS REAL PAIN
                      FOR MY SHAM FRIENDS - Fall Out Boy
-------------------------------------------------------------------------------

Guitar 1: Lead (Standard)
Guitar 2: Rhythm (Standard)


Ok, i'm pretty sure this is correct. Ratings and comments welcome!

Intro:

  Guitar 1
e|----------------77--------77---------------|
B|-------------55--------55----7h8p7---------|
G|----------77--------77----------------x4---|
D|-------------------------------------------|
A|-------------------------------------------|
E|-------------------------------------------|

  Guitar 2
e|--------------------------------------------|
B|--------------------------------------------|
G|---77777777777777779999999999999999---------|
D|---77777777777777779999999999999999----x2---|
A|---55555555555555557777777777777777---------|
E|--------------------------------------------|


Verse:

  Guitars 1 & 2
e|--------------------------------------------|
B|--------------------------------------------|
G|-----55-55-5-55-55-5-44-44-4-55-55-5--------|
D|-----xx-xx-x-xx-xx-x-xx-xx-x-xx-xx-x---x2---|
A|-----00-00-0-55-55-5-xx-xx-x-00-00-0--------|
E|---------------------33-33-3----------------|

e|--------------------------------------------|
B|--------------------------------------------|
G|-----66-66-6-55-55-5-44-44-4-55-55-5--------|
D|-----xx-xx-x-xx-xx-x-xx-xx-x-xx-xx-x--------|
A|-----00-00-0-55-55-5-xx-xx-x-00-00-0--------|
E|---------------------33-33-3----------------|

e|--------------------------------------------|
B|--------------------------------------------|
G|-----55-55-5-55-55-5-44-44-4-55-55-5--------|
D|-----xx-xx-x-xx-xx-x-xx-xx-x-xx-xx-x--------|
A|-----00-00-0-55-55-5-xx-xx-x-00-00-0--------|
E|---------------------33-33-3----------------|

e|--------------------------------------------|
B|--------------------------------------------|
G|-----66-66-6-55-55-5-4444444444444444-------|
D|-----xx-xx-x-xx-xx-x-xxxxxxxxxxxxxxxx-------|
A|-----00-00-0-55-55-5-xxxxxxxxxxxxxxxx-------|
E|---------------------3333333333333333-------|


Pre-chorus:

  Guitar 1
e|-------------------------------------------------|
B|-------------------------------------------------|
G|-----7/9--7/9--7/9-5---7/9--7/9--7/9-12-9--------|
D|-----x/x--x/x--x/x-x---x/x--x/x--x-x--x-x--------|
A|-----5/7--5/7--5/7-3---5/7--5/7--5/7-10-7--------|
E|-------------------------------------------------|

e|-------------------------------------------------|
B|-------------------------------------------------|
G|-----7/9--7/9--7/9-5---7/9--7/9-7777777777777777-|
D|-----x/x--x/x--x/x-x---x/x--x/x-xxxxxxxxxxxxxxxx-|
A|-----5/7--5/7--5/7-3---5/7--5/7-5555555555555555-|
E|-------------------------------------------------|

  Guitar 2
e|-------------------------------------------------------|
B|-------------------------------------------------------|
G|-----55555555-4444-5555-----55555555-7777777777777777--|
D|-----55555555-5555-5555-x3--55555555-7777777777777777--|
A|-----33333333-2222-3333-----33333333-5555555555555555--|
E|-------------------------------------------------------|


Chorus:

  Guitar 1
e|------------8---------|
B|------5h6p5---6-------|
G|-----------------x8---|
D|----------------------|
A|----------------------|
E|----------------------|

  Guitar 2
e|---------------------------------------------------------------------------|
B|---------------------------------------------------------------------------|
G|------5555555544444444-----------------------------------------------------|
D|------5555555555555555333333333333333377777777555555553333333333333333-----|
A|------3333333322222222333333333333333377777777555555553333333333333333-----|
E|----------------------111111111111111155555555333333331111111111111111-----|

  Guitars 1 & 2
e|-----------------------------------------------------------------------0~--|
B|-----------------------------------------------------------------------0~--|
G|------5~-5~-5~--4-4-44-------------------------------------------------0~--|
D|------5~-5~-5~--5-5-55-33333333333333377777777555555553333333333333333-0~--|
A|------3~-3~-3~--2-2-22-33333333333333377777777555555553333333333333333-----|
E|-----------------------11111111111111155555555333333331111111111111111-----|
  The rhythm isn't perfect, just listen to the song.


Repeat Intro


Repeat verse


Chorus:

  Guitar 1
e|------------8---------|
B|------5h6p5---6-------|
G|-----------------x8---|
D|----------------------|
A|----------------------|
E|----------------------|

  Guitar 2
e|---------------------------------------------------------------------------|
B|---------------------------------------------------------------------------|
G|------5555555544444444-----------------------------------------------------|
D|------5555555555555555333333333333333377777777555555553333333333333333-----|
A|------3333333322222222333333333333333377777777555555553333333333333333-----|
E|----------------------111111111111111155555555333333331111111111111111-----|

  Guitar 1
e|---------------------------------------------------------------------------|
B|---------------------------------------------------------------------------|
G|-----5~-5~-5~--4-4-44--9/7--77--7/9/7--4-5~--4-5--5/7/5~-------------------| 
D|-----x--x--x---x-x-xx--x/x--xx--x/x/x--x-x---x-x--x-x-x--------------------| 
A|-----3~-3~-3~--2-2-22--7/5--55--5/7/5--2-3~--2-3--3/5/3~-------------------|
E|---------------------------------------------------------------------------|
  Listen carefully, this part is difficult to hear.


  Guitar 2
e|---------------------------------------------------------------------------|
B|---------------------------------------------------------------------------|
G|------5~-5~-5~--4-4-44-----------------------------------------------------|
D|------5~-5~-5~--5-5-55-33333333333333377777777555555553333333333333333-----|
A|------3~-3~-3~--2-2-22-33333333333333377777777555555553333333333333333-----|
E|-----------------------11111111111111155555555333333331111111111111111-----|


Bridge:

Bass only

  Guitar 1
e|---------------------------------------------------------------------------|
B|---------------------------------------------------------------------------|
G|------4--5~---5-4--5~---5-4--5--5/7/5--------------------------------------|
D|------5--5~---5-5--5~---5-5--5---------------------------------------------|
A|---------------------------------------------------------------------------|
E|---------------------------------------------------------------------------|

Bass & Vocals

  Guitars 1 & 2
e|---------------------------------------------------------------------------|
B|---------------------------------------------------------------------------|
G|---55555555555555555555555555555555----------------------------------------|
D|---55555555555555555555555555555555----------------------------------------| . = Palm Mute
A|---33333333333333333333333333333333----------------------------------------|
E|---------------------------------------------------------------------------|
     ......................    Gradually release the palm mute


Chorus:

  Guitar 1
e|------------8---------|
B|------5h6p5---6-------|
G|-----------------x8---|
D|----------------------|
A|----------------------|
E|----------------------|

  Guitar 2
e|---------------------------------------------------------------------------|
B|---------------------------------------------------------------------------|
G|------5555555544444444-----------------------------------------------------|
D|------5555555555555555333333333333333377777777555555553333333333333333-----|
A|------3333333322222222333333333333333377777777555555553333333333333333-----|
E|----------------------111111111111111155555555333333331111111111111111-----|

  Guitar 1
e|---------------------------------------------------------------------------|
B|---------------------------------------------------------------------------|
G|-----5~-5~-5~--4-4-44--9/7--77--7/9/7--4-5~--------------------------------| 
D|-----x--x--x---x-x-xx--x/x--xx--x/x/x--x-x------------33333xx33333~--------| 
A|-----3~-3~-3~--2-2-22--7/5--55--5/7/5--2-3~-----------33333xx33333~--------| 
E|------------------------------------------------------11111xx11111~--------|
  Listen carefully, this part is difficult to hear.


  Guitar 2
e|---------------------------------------------------------------------------|
B|---------------------------------------------------------------------------|
G|------5~-5~-5~--4-4-44-----------------------------------------------------|
D|------5~-5~-5~--5-5-55-333333333333333777777775555555533333xx33333~--------|
A|------3~-3~-3~--2-2-22-333333333333333777777775555555533333xx33333~--------|
E|-----------------------111111111111111555555553333333311111xx11111~--------|

************************************

| /   slide up
| \   slide down
| h   hammer-on
| p   pull-off
| ~   vibrato
| +   harmonic
| x   Mute note
| b   Bend
| pb  Pre-bend
| br  Bend release
| pbr Pre-bend release
| brb Bend release bend

************************************
            
Submit corrections


        Champagne For My Real Friends Real Pain For My Sham Friends lessons Hard to play? Try these video lessons and learn fast Champagne For My Real Friends Real Pain For My Sham Friends lessons
        
↑ Back to top | Tablatures and chords for acoustic guitar and electric guitar, ukulele, drums are parodies/interpretations of the original songs. You may use it for private study, scholarship, research or language learning purposes only