» » »

Fall Out Boy - Beat It Tabs

Artists:  A B C D E F G H I J K L M N O P Q R S T U V W X Y Z # 

Beat It Tabs

(ver. 1) Click to play this song!
Fall Out Boy
 Rating:
4/5 (4 votes)
    Beat It lessons Tabs too difficult? Try these video lessons and learn fast
                			     Beat it - fall out boy

Tuning:E,B,G,D,A,D
                              
e|-------------------------X-------------------------------------------------|
B|-----------------6-8-10---X-8/10-13p10-------------------------------------|
G|-------------5-7----------------------12-10-13\12-10\7-7------------------|
D|--7\6/7--5/7---------------------------------------------------------------|
A|---------------------------------------------------------------------------|
d|---------------------------------------------------------------------------|

e|-----8--------------------------------13-----------------------------------|
B|-8h10-9\8-8p6-8-6---------6-5------------15-15-----------------------------|
G|-----------------------5-7----7--13/14--------12p10------------------------|
D|--------------------5/7----------------------------12-12p10-12-12p10-12-12-|
A|---------------------------------------------------------------------------|
d|---------------------------------------------------------------------------|

e|X--------------------------------------------------------------------------|
B|-X3p1-3p1-3p1-3p1-1-3/15---------------------------------------------------|
G|-----3---3---3---3------14p12--12-14---------------------------------------|
D|-----------------------------15-----12-10-------/12------------------------|
A|-----------------------------------------12-10-8---------------------------|
d|---------------------------------------------------------------------------|
 

e|----6\5/6-6/8------10/12---5---8---10--12---13--15--17-/22-----------------|
B|---6-------------8---------tremelo picking above---------------------------|
G|--7-------------9----------------------------------------------------------|
D|-8------------10-----------------------------------------------------------|
A|---------------------------------------------------------------------------|
d|---------------------------------------------------------------------------|

Well, that's the tab! I hope you enjoy it... (and please rate). :) 


| /  slide up
| \  slide down
| h  hammer-on
| p  pull-off
| ~  vibrato
| +  harmonic
| x  Mute note
            
Submit corrections

↑ Back to top | Tablatures and chords for acoustic guitar and electric guitar, ukulele, drums are parodies/interpretations of the original songs. You may use it for private study, scholarship, research or language learning purposes only