» » »

Fall Out Boy - America's Suitehearts Bass

Artists:  A B C D E F G H I J K L M N O P Q R S T U V W X Y Z # 

America's Suitehearts Bass

(ver. 2) Click to play this song!
Fall Out Boy
 Rating:
4/5 (4 votes)


 America's Suitehearts lessons Tabs too difficult? Try these video lessons and learn fast
 
                -------------------------------------------------------------------------------
			     America's Suitehearts - Fall Out Boy
-------------------------------------------------------------------------------

Tuning: Drop D

Intro
G|------------|    |----------|
D|------------|    |----------|
A|------------|    |----------|
D|-7--7-77--7-|x3  |-7-7--77-7|

Verse "You could've knocked me out.."
G|-------------------------------------------------------------------------|
D|-------------------------------------------------------------------------|
A|------------------------------------12-----------------------------------|
D|12---1211----7-9----9-7--7h9p7h9-12------12----1211----7-9---9-7---79-79-|

pre-chorus "Don't know much about classic cars."
G|--------------------------------------------------------------------------------|
D|--------------------------------------------------------------------------------|
A|-2--22--22--22-2------------------2--22-2-2--22-2-------------------------------|
D|-----------------9--99--99--99-7------------------9--99--99--99-7--5~---5-5--5~-|

chorus "Let's hear it for America's Sweethearts."
G|------------------------------------------------------|
D|------------------------------------------------------|
A|------------------------------------------------------|
D|00-0--000-0-99-9--999-9--55-5--555-5--99977775555777-7|x2

Verse "you can bow and pretend"
G|------------------------------------------------------------------------|
D|------------------------------------------------------------------------|
A|------------------------------------12----------------------------------|
D|0---1211----7-9----9-7--7h9p7h9-12------12----1211----7-9---9-7---79-79-|

pre-chorus x1
chorus x2

Intro
G|------------|    |----------|
D|------------|    |----------|
A|------------|    |----------|
D|-7--7-77--7-|x9  |-7-7--77-7|

keep repeating chorus until end.
            
Submit corrections



        America's Suitehearts lessons Hard to play? Try these video lessons and learn fast America's Suitehearts lessons
        
↑ Back to top | Tablatures and chords for acoustic guitar and electric guitar, ukulele, drums are parodies/interpretations of the original songs. You may use it for private study, scholarship, research or language learning purposes only