» » »

Fall Out Boy - America's Suitehearts Tabs

Artists:  A B C D E F G H I J K L M N O P Q R S T U V W X Y Z # 

America's Suitehearts Tabs

(ver. 1) Click to play this song!
Fall Out Boy
 Rating:
4/5 (4 votes)

 America's Suitehearts lessons Tabs too difficult? Try these video lessons and learn fast
 
                Album:Folie à Deux

For any comments, questions, or suggestions; just post a comment,PM, or mail me.

Pilipino Rules!!Mabuhay ang Pilipinas\m/,

Please check out my band's profile as well=)



Gtr.Legends:
/ - slide
p - pull-off
h - hammer-on
. - palm muting
~ - let it ring

Gtr.Tuning:(Alternative)Drop D

Intro:
e|--------------------------------|
B|--------------------------------|
G|-666666--77777--99999--101010---|
D|-777777--77777--77777--777777---|
A|-777777--77777--77777--777777---|
D|--------------------------------|

Verse 1:You could have...
Gtr.1:
e|---2-xx-2-xx-2-xx-2---2-xx-2-xx-2-xx-2---2-xx-2-xx-2-xx-2---2-xx-2-xx-2-xx-2---|
B|---3-xx-3-xx-3-xx-3---2-xx-2-xx-2-xx-2---3-xx-3-xx-3-xx-3---2-xx-2-xx-2-xx-2---|
G|---2-xx-2-xx-2-xx-2---2-xx-2-xx-2-xx-2---4-xx-4-xx-4-xx-4---2-xx-2-xx-2-xx-2---|
D|-----------------------------------------4-xx-4-xx-4-xx-4----------------------|
A|-0-----------------------------------------------------------------------------|
D|-0-----------------------------------------------------------------------------|
   .

Gtr.2:
e|------------------------------------------------------------------------------------|
B|------------55--77------77-----77--77---------------55--77-------77------77--77-----|
G|--------------------------------------------------------------------------------7---|
D|---44-7777---------7-------77---------7----44-7777----------7-------77--------------|
A|-0----------------------------------------------------------------------------------|
D|-0----------------------------------------------------------------------------------|
   .

e|----------------------------------------------------------------------------------|
B|----------55--77------77-----77--77---------------55--77-------77------77--77-----|
G|------------------------------------------------------------------------------7---|
D|-44-7777---------7-------77---------7----44-7777----------7-------77--------------|
A|----------------------------------------------------------------------------------|
D|----------------------------------------------------------------------------------|

Pre-Chorus:But I don't know much...
Gtr.1 Enters
e|---------------------------------------------------------------  ------------|
B|---------------------------------------------------------------  ------------|
G|-----------------44-444-44-444-------------------44-444-44-444-  ------------|
D|-22-222-22-222---44-444-44-444---22-222-22-222---44-444-22-444-  -5-----5~---|
A|-22-222-22-222---22-222-22-222---22-222-22-222---22-222-22-222-  -5-55--5~---|
D|-22-222-22-222-------------------22-222-22-222-----------------  -5-55--5~---|
   .. ... .. ...   .. ... .. ...   .. ... .. ...   .. ... .. ...      ..

Gtr.2
e|-----------------------------------------5-----------5-5---      -----------------|
B|-5-3-5-7---5-3-5-7-5-3---------5-3----------5-3------------      -3-5-7-7/10-7~---|
G|------------------------4-2---------4-2---------4---------- 2x   -----------------|
D|----------------------------------------------------------- Then -----------------|
A|-----------------------------------------------------------      -----------------|
D|-----------------------------------------------------------      -----------------|

Chorus:Lets hear it for America's suithearts...
e|------------------------------------------------------|
B|------------------------------------------------------|
G|----7-----7-----7-----7-----7----7--------------------|
D|-00-x--00-x--99-x--99-x--55-x-55-x---9~--7~--5~--7~---|
A|-00-5--00-5--99-5--99-5--55-5-55-5---9~--7~--5~--7~---|
D|-00----00----99----99----55---55-----9~--7~--5~--7~---|

--------------------------------------------------------|
--------------------------------------------------------|
----7-----7-----7-----7/9-----7----7--------------------|
-00-x--00-x--99-x--99-x-x--55-x-55-x---9~--7~--5~--7~---|
-00-5--00-5--99-5--99-5/7--55-5-55-5---9~--7~--5~--7~---|
-00----00----99----99------55---55-----9~--7~--5~--7~---|

Verse 2:You can bow and pretend...
Gtr.1:
e|----2-xx-2-xx-2-xx-2---2-xx-2-xx-2-xx-2--------2-xx-2-xx-2-xx-2---|
B|----3-xx-3-xx-3-xx-3---2-xx-2-xx-2-xx-2--------2-xx-2-xx-2-xx-2---|
G|----2-xx-2-xx-2-xx-2---2-xx-2-xx-2-xx-2--------2-xx-2-xx-2-xx-2---|
D|------------------------------------------------------------------|
A|-0----------------------------------------------------------------|
D|-0--------------------------------------Pause---------------------|

-2-xx-2-xx-2-xx-2---2-xx-2-xx-2-xx-2---2-xx-2-xx-2-xx-2---2-xx-2-xx-2-xx-2---|
-3-xx-3-xx-3-xx-3---2-xx-2-xx-2-xx-2---3-xx-3-xx-3-xx-3---2-xx-2-xx-2-xx-2---|
-2-xx-2-xx-2-xx-2---2-xx-2-xx-2-xx-2---4-xx-4-xx-4-xx-4---2-xx-2-xx-2-xx-2---|
---------------------------------------4-xx-4-xx-4-xx-4----------------------|
-----------------------------------------------------------------------------|
-----------------------------------------------------------------------------|

Gtr.2:Play Verse 1

Repeat Pre-Chorus:

Repeat Chorus:

Bridge:You could have knocked...
Gtr.1
e|----------------------|
B|----------------------|
G|----------------------|
D|-77-77--7---77-77-7---|
A|-77-77--7---77-77-7---|
D|-77-77--7---77-77-7---|
   .. ..  .   .. .. .

Gtr.2                             You could have...
e|---------------------------------------------------------|
B|---------------------------------------------------------|
G|-666666--77777--66666--777777---9999-101010--6666-7777---|
D|-777777--77777--77777--777777---7777-777777--7777-7777---|
A|-777777--77777--77777--777777---7777-777777--7777-7777---|
D|---------------------------------------------------------|

Repeat Chorus:

e|------------------------------------------------------------------|
B|------------------------------------------------------------------|
G|----7-----7-----7-----7h9-----7----7------------------------------|
D|-00-x--00-x--99-x--99-x-x--55-x-55-x---9~--7~--5~--7~--000-0000---|
A|-00-5--00-5--99-5--99-5h7--55-5-55-5---9~--7~--5~--7~--000-0000---|
D|-00----00----99----99------55---55-----9~--7~--5~--7~--000-0000---|
                                                         ... ....

Gtr.2 Enters:
e|----------------------------------------------------------------------------------------------|
B|-3h5-3h5-3~---3h5-3~--3h5-3h5-3--3h5-3h5--------3h5-3h5-3--3h5-3h5-3-----7p5-7p5-7p5\3/5-3~---|
G|------------------------------------------7/9-------------------------------------------------|
D|------------------------------------------x-x-------------------------------------------------|
A|------------------------------------------5/7-------------------------------------------------|
D|----------------------------------------------------------------------------------------------|

End...

America's Suitehearts Lyrics:

Verse 1:
You could have knocked me out with a feather
I know you heard this all before, but were just hells dreamers
Wh-wh-why wont the world revolve around me?
Build my dreams
Trees grow all over the streets

Pre-Chorus:
But I dont know much about classic cars
But I got a lot of friends talking classic coke
It's down set, hut, hut, hut, hike, Media blitz

Chorus:
Lets hear it for Americas suitehearts
I must confess
Im in love with my own sins
Lets hear it for Americas suitehearts
I must confess
Im in love with my own sins

Verse 2:
You can bow and pretend
That you dont, dont, dont know youre a legend
Time, time, time, has a toll
Anyone else, yeah
Let my love loose again

Pre-Chorus 2:
But I dont know much about classic cars
But I got a lot of friends talking classic coke
To see what, held, oh, high
Media, please

Repeat Chorus:

Bridge:
You could have knocked me out with a feather
I know you heard this all before

Outro Chorus:
Lets hear it for Americas suitehearts
I must confess
Im in love with my own sins
Lets hear it for Americas suitehearts
I must confess (I must confess)
Im in love with my own sins

Suitehearts, suitehearts, suitehearts (suitehearts)
            
Submit corrections


        America's Suitehearts lessons Hard to play? Try these video lessons and learn fast America's Suitehearts lessons
        
↑ Back to top | Tablatures and chords for acoustic guitar and electric guitar, ukulele, drums are parodies/interpretations of the original songs. You may use it for private study, scholarship, research or language learning purposes only