» » »

Fall Out Boy - Alpha Dog Tabs

Artists:  A B C D E F G H I J K L M N O P Q R S T U V W X Y Z # 

Alpha Dog Tabs

(ver. 3) Click to play this song!
Fall Out Boy
 Rating:
1.9/5 (27 votes)

 Alpha Dog lessons Tabs too difficult? Try these video lessons and learn fast
 
                INTRO:

Guitar 1
e|---------------------------------------------------------------------------|
B|-----6-6-8-8-10-10-----6-6-8-8-10-10-----6-6-8-8-10-10-10b(11)br-11-10-8-6-|
G|-7-7---------------5-5---------------3-3-----------------------------------|
D|---------------------------------------------------------------------------|
A|---------------------------------------------------------------------------|
D|---------------------------------------------------------------------------|

e|------------------------------------------------------------|
B|-----6-6-8-8-10-10-----6-6-8-8-10-10-----6-6-8-8-10-10-10---|
G|-7-7---------------5-5---------------3-3--------------------|
D|------------------------------------------------------------|
A|------------------------------------------------------------|
D|------------------------------------------------------------|

Guitar 2
e|---------------------------------------------------------------------------------|
B|---------------------------------------------------------------------------------|
G|---------------------------------------------------------------------------------|
D|-12-12-12-12-12-12-12-12-10-10-10-10-10-10-10-10-8-8-8-8-8-8-8-8-7-7-7-7-7-7-7-7-|
A|-12-12-12-12-12-12-12-12-10-10-10-10-10-10-10-10-8-8-8-8-8-8-8-8-7-7-7-7-7-7-7-7-|
D|-12-12-12-12-12-12-12-12-10-10-10-10-10-10-10-10-8-8-8-8-8-8-8-8-7-7-7-7-7-7-7-7-|

e|---------------------------------------------------------------------|
B|---------------------------------------------------------------------|
G|---------------------------------------------------------------------|
D|-12-12-12-12-12-12-12-12-10-10-10-10-10-10-10-10-8-8-8-8-8-8-8-8-7---|
A|-12-12-12-12-12-12-12-12-10-10-10-10-10-10-10-10-8-8-8-8-8-8-8-8-7---|
D|-12-12-12-12-12-12-12-12-10-10-10-10-10-10-10-10-8-8-8-8-8-8-8-8-7---|

VERSE:

e|----------------------------------------------------------|
B|----------------13-11-10p8--------------------------------|
G|-7------7-10-9~------------7------7-10-7------7h10-7------|
D|---7h10----------------------7h10--------7h10--------10---|
A|----------------------------------------------------------|
D|----------------------------------------------------------| x4

PRE-CHORUS (actually there's no guitar here):

e|--------------------------------------------|
B|--------------------------------------------|
G|--------------------------------------------|
D|----------------------------------x-x-x-x---|
A|----------------------------------x-x-x-x---|
D|-10-10--5-5--0-0--0-0--10-10--5-5-x-x-x-x---|
   x  x   x x  x x  x x  x  x   x x

CHORUS:

Guitar 1
e|-------------------------------------------------------------------------------|
B|-------------------------------------------------------------------------------|
G|-------------------------------------------------------------------------------|
D|-12-12-12-12-12-12-12-12-10-10-10-10-10-10-7-7-8-8-8-8-8-8-8-8-8-8-8-8-8-7-5-3-|
A|-12-12-12-12-12-12-12-12-10-10-10-10-10-10-7-7-8-8-8-8-8-8-8-8-8-8-8-8-8-7-5-3-|
D|-12-12-12-12-12-12-12-12-10-10-10-10-10-10-7-7-8-8-8-8-8-8-8-8-8-8-8-8-8-7-5-3-|

e|-------------------------------------------------------------------------|
B|-------------------------------------------------------------------------|
G|-------------------------------------------------------------------------|
D|-0-0-0-0-0-0-0-0-10-10-10-10-10-10-7-7-8-8-8-8-8-8-8-8-8-8-8-8-8-8-8-8---|
A|-0-0-0-0-0-0-0-0-10-10-10-10-10-10-7-7-8-8-8-8-8-8-8-8-8-8-8-8-8-8-8-8---|
D|-0-0-0-0-0-0-0-0-10-10-10-10-10-10-7-7-8-8-8-8-8-8-8-8-8-8-8-8-8-8-8-8---|

e|-------------------------------------------------------------------------|
B|-------------------------------------------------------------------------|
G|-------------------------------------------------------------------------|
D|-0-0-0-0-0-0-0-0-10-10-10-10-10-10-7-7-8-8-8-8-8-8-8-8-8-8-8-8-8-7-5-3---|
A|-0-0-0-0-0-0-0-0-10-10-10-10-10-10-7-7-8-8-8-8-8-8-8-8-8-8-8-8-8-7-5-3---|
D|-0-0-0-0-0-0-0-0-10-10-10-10-10-10-7-7-8-8-8-8-8-8-8-8-8-8-8-8-8-7-5-3---|

e|-------------------------------------------------------------------------|
B|-------------------------------------------------------------------------|
G|-------------------------------------------------------------------------|
D|-0-0-0-0-0-0-0-0-10-10-10-10-10-10-7-7-8-8-8-8-8-8-8-8-8-8-8-8-8-8-8-8---|
A|-0-0-0-0-0-0-0-0-10-10-10-10-10-10-7-7-8-8-8-8-8-8-8-8-8-8-8-8-8-8-8-8---|
D|-0-0-0-0-0-0-0-0-10-10-10-10-10-10-7-7-8-8-8-8-8-8-8-8-8-8-8-8-8-8-8-8---|

Guitar 2 (starts with "welcome to the new deja vu...")
e|---------------------------------------------------------------------------|
B|---------------------------------------------------------------------------|
G|-10-10-10-10-10-10-10-10-9-9-9-9-9-9-5-5-7-7-7-7-7-7-7-7-7-7-7-7-7-7-7-7---|
D|-x--x--x--x--x--x--x--x--x-x-x-x-x-x-x-x-x-x-x-x-x-x-x-x-x-x-x-x-x-x-x-x---|
A|-8--8--8--8--8--8--8--8--7-7-7-7-7-7-3-3-5-5-5-5-5-5-5-5-5-5-5-5-5-5-5-5---|
D|---------------------------------------------------------------------------| x2

INTRO

VERSE

PRE-CHORUS

CHORUS:

Guitar 1 plays like before

Guitar 2 (starts with "welcome to the new deja vu...")
e|-------------------------------------------------------------|
B|-----------13----------13----------13-10b(11)br~-10-8--------|
G|-9-10-9-10----9-7-9-10----9-7-9-10--------------------10-9---|
D|-------------------------------------------------------------|
A|-------------------------------------------------------------|
D|-------------------------------------------------------------|

e|--------------------------------------------|
B|-----------13----------13----------13-10~---|
G|-7-7-9-10-----9-7-9-10----9-7-9-10----------|
D|--------------------------------------------|
A|--------------------------------------------|
D|--------------------------------------------|

BRIDGE (only acoustic guitar here but you can play this in distortion):

e|-----------------------------|
B|-----------------------------|
G|-----------------------------|
D|-----------------------------|
A|-5-0-1--3--3--1--1--1--1-3---|
D|-----------------------------| x3
   x x x  x  x  x  x  x  x x

e|--------------------------------------------|
B|--------------------------------------------|
G|--------------------------------------------|
D|--------------------------x--x-x--x-x-x-x---|
A|-5-0-1--3--3--1--1--1-----x--x-x--x-x-x-x---|
D|--------------------------x--x-x--x-x-x-x---|
   x x x  x  x  x  x  x 

CHORUS:

Guitar 1 plays like before

Guitar 2 (starts with "welcome to the new deja vu...")
e|-------------------------------------------------------------|
B|----------13----------13----------13-10b(11)br~-10-8---------|
G|-9-7-9-10----9-7-9-10----9-7-9-10--------------------10-9----|
D|-------------------------------------------------------------|
A|-------------------------------------------------------------|
D|-------------------------------------------------------------|

e|--------------------------------------------|
B|-----------13----------13----------13-10~---|
G|-7-7-9-10-----9-7-9-10----9-7-9-10----------|
D|--------------------------------------------|
A|--------------------------------------------|
D|--------------------------------------------|

OUTRO:

Guitar 1
e|---------------------------------------------------------------------------|
B|-----6-6-8-8-10-10-----6-6-8-8-10-10-----6-6-8-8-10-10-10b(11)br-11-10-8-6-|
G|-7-7---------------5-5---------------3-3-----------------------------------|
D|---------------------------------------------------------------------------|
A|---------------------------------------------------------------------------|
D|---------------------------------------------------------------------------|

e|------------------------------------------------------------|
B|-----6-6-8-8-10-10-----6-6-8-8-10-10-----6-6-8-8-10-10-10---|
G|-7-7---------------5-5---------------3-3--------------------|
D|------------------------------------------------------------|
A|------------------------------------------------------------|
D|------------------------------------------------------------|

Guitar 2
e|---------------------------------------------------------------------------------|
B|---------------------------------------------------------------------------------|
G|---------------------------------------------------------------------------------|
D|-12-12-12-12-12-12-12-12-10-10-10-10-10-10-10-10-8-8-8-8-8-8-8-8-7-7-7-7-7-7-7-7-|
A|-12-12-12-12-12-12-12-12-10-10-10-10-10-10-10-10-8-8-8-8-8-8-8-8-7-7-7-7-7-7-7-7-|
D|-12-12-12-12-12-12-12-12-10-10-10-10-10-10-10-10-8-8-8-8-8-8-8-8-7-7-7-7-7-7-7-7-|

e|---------------------------------------------------------------------|
B|---------------------------------------------------------------------|
G|---------------------------------------------------------------------|
D|-12-12-12-12-12-12-12-12-10-10-10-10-10-10-10-10-8-8-8-8-8-8-8-8-7---|
A|-12-12-12-12-12-12-12-12-10-10-10-10-10-10-10-10-8-8-8-8-8-8-8-8-7---|
D|-12-12-12-12-12-12-12-12-10-10-10-10-10-10-10-10-8-8-8-8-8-8-8-8-7---|            
Submit corrections


        Alpha Dog lessons Hard to play? Try these video lessons and learn fast Alpha Dog lessons
        
↑ Back to top | Tablatures and chords for acoustic guitar and electric guitar, ukulele, drums are parodies/interpretations of the original songs. You may use it for private study, scholarship, research or language learning purposes only