» » »

Falling In Reverse - God If You Are Above Tabs

Artists:  A B C D E F G H I J K L M N O P Q R S T U V W X Y Z # 

God If You Are Above Tabs

(ver. 2) Click to play this song!
Falling In Reverse
 Rating:
2.7/5 (30 votes)

 God If You Are Above lessons Tabs too difficult? Try these video lessons and learn fast
 
                Section 1

D|--13p10----------------10--12p10-------------------------------------------|
A|--------10----------10-----------10----------------------------------------|
F|-----------10----10-----------------10-------------------------------------|
C|--------------12--------------------------14p12p10-------------------------|
G|---------------------------------------12----------------------------------|
C|---------------------------------------------------------------------------|

Section 2
                                                       ~
e|--18h20p18p17--------------------------------------------------------------|
B|--------------20p18p17-----------------------------------------------------|
G|-----------------------19-17-15----------------------15--------------------|
D|--------------------------------19-17-15-----------------------------------|
A|-----------------------------------------19-17-15\13-----------------------|
E|---------------------------------------------------------------------------|

Section 3

e|--12p8--------------8h10p8-------------------------------------------------|
B|---------------------------------------------------------------------------|
G|-------12p9----9h12--------12p9--------------------------------------------|
D|------------10---------------------12p10p8---------------------------------|
A|--------------------------------10-----------------------------------------|
E|---------------------------------------------------------------------------|

Section 4

e|--17p13----------------13--15p12----12-14p11--12---------------------------|
B|---------------------------------14--------------14----14------------------|
G|--------17p14----14h17------------------------------15----15-12------------|
D|--------------15-----------------------------------------------------------|
A|---------------------------------------------------------------------------|
E|---------------------------------------------------------------------------|

Section 5
                                                                                +
e|-------------------12-13-15--15-13-12--------------------------------------------|
B|--13b13p10-13b-13b--------------------15-13-11-13-15-13-11-----------------------|
G|-----------------------------------------------------------12-10-9---------------|
D|-----------------------------------------------------------------------------/10-|
A|-------------------------------------------------------------------10/12\10------|
E|---------------------------------------------------------------------------------|

Section 6

e|--tap24p20p15---------------------15h20--tap22p20p15----------------------15h20-|
B|-------------17----------------17--------------------17-----------------17------|
G|---------------17------------17------------------------17-------------17--------|
D|-----------------17--------17----------------------------17---------17----------|
A|-------------------19-15-19---------------------------------19-15-9-------------|
E|--------------------------------------------------------------------------------|

e|--tap24p20p15----------15h20--tap22p20p15---------15h20--------------------|
B|--------------17----17--------------------17----17-------------------------|
G|-----------------17--------------------------17----------------------------|
D|---------------------------------------------------------------------------|
A|---------------------------------------------------------------------------|
E|---------------------------------------------------------------------------|

e|--tap24p20p15----------15h20--tap22p20p15---------15-----------------------|
B|--------------17----17--------------------17----17-------------------------|
G|-----------------17--------------------------17----------------------------|
D|---------------------------------------------------------------------------|
A|---------------------------------------------------------------------------|
E|---------------------------------------------------------------------------|

Section 7

e|--20-18-17----------------17-18-20-18-17-----------------------------------------------|
B|-----------20-18-17-18-20----------------20-18-17--------------------------------------|
G|--------------------------------------------------19-17-15----------19-17-15-----------|
D|-----------------------------------------------------------19-17-15-----------19-17-15-|
A|---------------------------------------------------------------------------------------|
E|---------------------------------------------------------------------------------------|

e|---------------------------------------------------------------------------|
B|---------------------------------------------------------------------------|
G|--17-15-14-----------------------------------------------------------------|
D|-----------17-15-14-15-17-15-14--------------------------------------------|
A|--------------------------------15/17--------------------------------------|
E|---------------------------------------------------------------------------|            
Submit corrections


        God If You Are Above lessons Hard to play? Try these video lessons and learn fast God If You Are Above lessons
        
↑ Back to top | Tablatures and chords for acoustic guitar and electric guitar, ukulele, drums are parodies/interpretations of the original songs. You may use it for private study, scholarship, research or language learning purposes only