» » »

Falling In Reverse - God If You Are Above Tabs

Artists:  A B C D E F G H I J K L M N O P Q R S T U V W X Y Z # 

God If You Are Above Tabs

(ver. 1) Click to play this song!
Falling In Reverse
 Rating:
2.4/5 (28 votes)

 God If You Are Above lessons Tabs too difficult? Try these video lessons and learn fast
 
                Part 1:

e|13-p10------------------10-h12-p10-----------------------------------------|
B|---------------------------------------------------------------------------|
G|-------14-p10----10-h14------------14-p10----------------------------------|
D|--------------12-----------------------------14-p12-p12--------------------|
A|------------------------------------------12-------------------------------|
E|---------------------------------------------------------------------------|

Part 2:

e|18h20p18p17----------------------------------------------------------------|
B|-----------20p18p17--------------------------------------------------------|
G|-------------------191715--------------------------------------------------|
D|-------------------------191715-----------15~------------------------------|
A|-------------------------------191715/13t----------------------------------|
E|---------------------------------------------------------------------------|

Part 3:

e|12-p8----------------8-h10-p8------------------------------------------------|
B|-----------------------------------------------------------------------------|
G|------12-p9----9-h12----------12-p9------------------------------------------|
D|------------10-------------------------12-p10-p8-----------------------------|
A|------------------------------------10---------------------------------------|
E|-----------------------------------------------------------------------------|

Part 4:

e|17-p13------------------13-h15-p12-----15-p12-----12-----------------------|
B|-----------------------------------14~--------14~----14----14--------------|
G|-------17-p14----14-h17---------------------------------15----15-12~-------|
D|--------------15-----------------------------------------------------------|
A|---------------------------------------------------------------------------|
E|---------------------------------------------------------------------------|

Part 5:

e|----------------12-13-15-151312--------------------------------------------|
B|13b-p1013b-13bb----------------15131113151311------------------------------|
G|---------------------------------------------12109-------------------------|
D|------------------------------------------------------------s10b-----------|
A|--------------------------------------------------10/12\10~----------------|
E|---------------------------------------------------------------------------|

Part 6:

e|t24p20p15------------------15h20t22p20p15------------------15h20-----------|
B|---------17--------------17--------------17--------------17----------------|
G|-----------17----------17------------------17----------17------------------|
D|-------------17------17----------------------17------17--------------------|
A|---------------191519--------------------------191519----------------------|
E|---------------------------------------------------------------------------|

Part 7: double time

e|t24p20p15------15h20t22p20p15------15h20t24p20p15------15h20t22p20p15------15--|
B|---------17--17--------------17--17--------------17--17--------------17--17----|
G|-----------17------------------17------------------17------------------17------|
D|-------------------------------------------------------------------------------|
A|-------------------------------------------------------------------------------|
E|-------------------------------------------------------------------------------|

Part 8:

e|20-18-17----------------17-18-20-18-17-------------------------------------|
B|---------20-18-17-18-20----------------20-18-17----------------------------|
G|------------------------------------------------19-17-15-------------------|
D|---------------------------------------------------------19-17-15----------|
A|---------------------------------------------------------------------------|
E|---------------------------------------------------------------------------|

Part 9:

e|---------------------------------------------------------------------------|
B|20-18-17-------------------------------------------------------------------|
G|---------20-18-17----------17-15-14----------------------------------------|
D|------------------20-18-17----------17-15-14-15-17-15-14-------------------|
A|---------------------------------------------------------15/17-------------|
E|---------------------------------------------------------------------------|            
Submit corrections


        God If You Are Above lessons Hard to play? Try these video lessons and learn fast God If You Are Above lessons
        
↑ Back to top | Tablatures and chords for acoustic guitar and electric guitar, ukulele, drums are parodies/interpretations of the original songs. You may use it for private study, scholarship, research or language learning purposes only