» » »

Falling In Reverse - Drifter Bass

Artists:  A B C D E F G H I J K L M N O P Q R S T U V W X Y Z # 

Drifter Bass

(ver. 2) Click to play this song!
Falling In Reverse
 Rating:
4/5 (4 votes)

 Drifter lessons Tabs too difficult? Try these video lessons and learn fast
 
                Intro
F|-----------------------------------------------------------------------|
C|-----------------------------------------------------------------------|
G|---0-2-3-------3-------3-------3-----3-0-------0-------0-------0-------|
C|-5---------5-------5-------5-------5-------2-------2-------2-------2---|
   + 4 + 1 + 2 + 3 + 4 + 1 + 2 + 3 + 4 + 1 + 2 + 3 + 4 + 1 + 2 + 3 + 4 +

F|-----7---------------7-------------------------------7-----------|
C|-5-------5-------5-------5-------3-------3-3-----5-------5-5-7-8-|
G|-------------5---------------5-------3-------3-------------------|
C|-----------------------------------------------------------------|
   1 + 2 + 3 + 4 + 1 + 2 + 3 + 4 + 1 + 2 + 3 + 4 + 1 + 2 + 3 + 4 +

Verse
F|-5-------5-------5-------5-------2-------2-------2-------2-------|
C|-----5-------5-------5-------5-------2-------2-------2-------2---|
G|-----------------------------------------------------------------|
C|-----------------------------------------------------------------|
   1 + 2 + 3 + 4 + 1 + 2 + 3 + 4 + 1 + 2 + 3 + 4 + 1 + 2 + 3 + 4 +

F|-----7---------------7-------------------------------7-----------|
C|-5-------5-------5-------5-----7-3-------3-------5-------5-5-3-2-|
G|-------------5---------------5-------3-------3-------------------|
C|-----------------------------------------------------------------|
   1 + 2 + 3 + 4 + 1 + 2 + 3 + 4 + 1 + 2 + 3 + 4 + 1 + 2 + 3 + 4 +

Chorus
F|-----------------------------------------------------------------|
C|-----------------------------------------------------------------|
G|-3-------3-------3-------3-----3-0-------0-------0-------0-------|
C|-----5-------5-------5-------5-------2-------2-------2-------2---|
   1 + 2 + 3 + 4 + 1 + 2 + 3 + 4 + 1 + 2 + 3 + 4 + 1 + 2 + 3 + 4 +

F|-----------------------------------------------------------------|
C|---------------------------------------------------------5-3-2-0-|
G|-----3-------3-------3-------3-------5-------5-------5-----------|
C|-3-------3-------3-------3-------5-------5-------5---------------|
   1 + 2 + 3 + 4 + 1 + 2 + 3 + 4 + 1 + 2 + 3 + 4 + 1 + 2 + 3 + 4 +

Interlude
F|-----------------------------------------------------------------|
C|-----------------------------------------------------------------|
G|-3-------3-------3-------3-----3-0-------0-------0-------0-------|
C|-----5-------5-------5-------5-------2-------2-------2-------2---|
   1 + 2 + 3 + 4 + 1 + 2 + 3 + 4 + 1 + 2 + 3 + 4 + 1 + 2 + 3 + 4 +

F|-----7---------------7-------------------------------7-----------|
C|-5-------5-------5-------5-------3-------3-------5-------5-5-7-8-|
G|-------------5---------------5-------3-------3-------------------|
C|-----------------------------------------------------------------|
   1 + 2 + 3 + 4 + 1 + 2 + 3 + 4 + 1 + 2 + 3 + 4 + 1 + 2 + 3 + 4 +

Verse
F|-5-------5-------5-------5-------2-------2-------2-------2-------|
C|-----5-------5-------5-------5-------2-------2-------2-------2---|
G|-----------------------------------------------------------------|
C|-----------------------------------------------------------------|
   1 + 2 + 3 + 4 + 1 + 2 + 3 + 4 + 1 + 2 + 3 + 4 + 1 + 2 + 3 + 4 +

F|-----7---------------7-------------------------------7-----------|
C|-5-------5-------5-------5-----7-3-------3-------5-------5-5-3-2-|
G|-------------5---------------5-------3-------3-------------------|
C|-----------------------------------------------------------------|
   1 + 2 + 3 + 4 + 1 + 2 + 3 + 4 + 1 + 2 + 3 + 4 + 1 + 2 + 3 + 4 +

Chorus
F|-----------------------------------------------------------------|
C|-----------------------------------------------------------------|
G|-3-------3-------3-------3-----3-0-------0-------0-------0-------|
C|-----5-------5-------5-------5-------2-------2-------2-------2---|
   1 + 2 + 3 + 4 + 1 + 2 + 3 + 4 + 1 + 2 + 3 + 4 + 1 + 2 + 3 + 4 +

F|-----------------------------------------------------------------|
C|---------------------------------------------------------5-3-2-0-|
G|-----3-------3-------3-------3-------5-------5-------5-----------|
C|-3-------3-------3-------3-------5-------5-------5---------------|
   1 + 2 + 3 + 4 + 1 + 2 + 3 + 4 + 1 + 2 + 3 + 4 + 1 + 2 + 3 + 4 +

Bridge
F|-2---------------------2-2-----2-5-----------------------------5-|
C|-----2-------2-------2-------2-------5-------5-------5-------5---|
G|---------0-------0-----------------------3-------3-------3-------|
C|-----------------------------------------------------------------|
   1 + 2 + 3 + 4 + 1 + 2 + 3 + 4 + 1 + 2 + 3 + 4 + 1 + 2 + 3 + 4 +

F|-------------------------------------------------------------0-1-|
C|-3-------3-------3-------3-----3---------5-------5-------5-3-----|
G|-----3-------3-------3-------3-------5-------5-------5-----------|
C|---------------------------------5-------------------------------|
   1 + 2 + 3 + 4 + 1 + 2 + 3 + 4 + 1 + 2 + 3 + 4 + 1 + 2 + 3 + 4 +

F|-2-----------------------2-----2-5-----------------------------5-|
C|-----2-------2-------2-------2-------5-------5-------5-------5---|
G|---------0-------0-----------------------3-------3-------3-------|
C|-----------------------------------------------------------------|
   1 + 2 + 3 + 4 + 1 + 2 + 3 + 4 + 1 + 2 + 3 + 4 + 1 + 2 + 3 + 4 +

F|-----------------------------------------------------------------|
C|-3-------3-------3-------3-------2-------2-------3-------5-------|
G|-----3-------3-------3-------3-------2-------2-------3-------5---|
C|-----------------------------------------------------------------|
   1 + 2 + 3 + 4 + 1 + 2 + 3 + 4 + 1 + 2 + 3 + 4 + 1 + 2 + 3 + 4 +

Outro Chorus
F|-----------------------------------------------------------------|
C|-----------------------------------------------------------------|
G|-3-------------------------------0-------------------------------|
C|-----------------------------------------------------------------|
   1 + 2 + 3 + 4 + 1 + 2 + 3 + 4 + 1 + 2 + 3 + 4 + 1 + 2 + 3 + 4 +

F|-----------------------------------------------------------------|
C|-----------------------------------------------------------------|
G|-----------------------------------------------------------------|
C|-5-------------------------------3---------------5---------------|
   1 + 2 + 3 + 4 + 1 + 2 + 3 + 4 + 1 + 2 + 3 + 4 + 1 + 2 + 3 + 4 +
            
Submit corrections


        Drifter lessons Hard to play? Try these video lessons and learn fast Drifter lessons
        
↑ Back to top | Tablatures and chords for acoustic guitar and electric guitar, ukulele, drums are parodies/interpretations of the original songs. You may use it for private study, scholarship, research or language learning purposes only