» » »

Falling In Reverse - Drifter Bass

Artists:  A B C D E F G H I J K L M N O P Q R S T U V W X Y Z # 

Drifter Bass

(ver. 1) Click to play this song!
Falling In Reverse
 Rating:
4/5 (4 votes)

 Drifter lessons Tabs too difficult? Try these video lessons and learn fast
 
                The main riff is played six times through the intro, verses, and chorus.

F|---------------------------------------------------------------|
C|---------------------------------------------------------------|
G|-3--3--3--3-----0--0--0--0--------------------------3--3--5--5-|
C|--5--5--5--5-----3--3--3--3-----50--50--50--50-----3--3--5--5--|x6



This riff is for the bridge/outro, same rhythm.

F|-------------------------------------------------------------|
C|-------------------------------------------------------------|
G|-0--0--0--0------3--3--3--3-------3--3--3--3------5--5--5--5-|
C|--3--3--3--3------5--5--5--5-----3--3--3--3------5--5--5--5--|x2



Jack Mills
            
Submit corrections


        Drifter lessons Hard to play? Try these video lessons and learn fast Drifter lessons
        
↑ Back to top | Tablatures and chords for acoustic guitar and electric guitar, ukulele, drums are parodies/interpretations of the original songs. You may use it for private study, scholarship, research or language learning purposes only